Statistikk
Velg Klasse: Velg øvelse:
Velg Sesong: Utendørs Innendørs Filter:

Menn Senior

60 meter

ResultatNavn, KlubbF.DatoPlasseringStedR.Dato
-----10--------------------
-----20--------------------
-----30--------------------
-----40--------------------
7,25(+1,9)Tobias Dale, Asker Sk. Friidrett04.01.971-h1 (G-18/19)Asker, Askerlekene 201605.06.16
-----50--------------------
-----60--------------------
-----70--------------------
-----80--------------------
-----90--------------------
-----100--------------------
-----110--------------------
-----120--------------------
-----130--------------------
-----140--------------------
-----150--------------------
-----160--------------------
-----170--------------------
-----180--------------------
-----190--------------------
-----200--------------------
-----210--------------------
-----220--------------------
7,67(-0,4)Sondre Johre, Asker Sk. Friidrett28.08.931-h2 (G-18/19)Asker, Askerlekene 201203.06.12
-----230--------------------
7,69(-1,6)Lukas Øiseth, Asker Sk. Friidrett29.08.042-fi (G-15)Asker, Askerlekene 201909.06.19
-----240--------------------
-----250--------------------
-----260--------------------
-----270--------------------
-----280--------------------
7,75(+1,2)Martin Granøien Monsen, Asker Sk. Friidrett05.01.972-h2 (G-17)Asker, Askerlekene 201401.06.14
-----290--------------------
-----300--------------------
7,80(+1,4)Peter Svoren, Asker Sk. Friidrett18.04.012 (G-15)Asker, Askerlekene 201605.06.16
-----310--------------------
7,81(+0,6)Henrik Dahlen Annexstad, Asker Sk. Friidrett23.11.022 (G-17)Asker, Askerlekene 201909.06.19
-----320--------------------
-----330--------------------
7,86(-0,3)Morten Fronth, Asker Sk. Friidrett01.01.954 (G-16)Asker, Askerlekene 201112.06.11
-----340--------------------
7,88(+1,2)Magnus Kvale Thom, Asker Sk. Friidrett21.03.974-h2 (G-17)Asker, Askerlekene 201401.06.14
-----350--------------------
-----360--------------------
-----370--------------------
-----380--------------------
-----390--------------------
-----400--------------------
-----410--------------------
-----420--------------------
-----430--------------------
8,00(-1,6)August Østbø Johansen, Asker Sk. Friidrett12.08.043-fi (G-15)Asker, Askerlekene 201909.06.19
-----440--------------------
-----450--------------------
-----460--------------------
8,06(-1,6)Sondre Jahren, Asker Sk. Friidrett02.02.044-fi (G-15)Asker, Askerlekene 201909.06.19
-----470--------------------
8,09(+1,4)Theodor Kleven Svendsen, Asker Sk. Friidrett29.05.013 (G-15)Asker, Askerlekene 201605.06.16
-----480--------------------
-----490--------------------
-----500--------------------
-----510--------------------
-----520--------------------
-----530--------------------
8,20(+1,9)Espen Berntzen Høgstedt, Asker Sk. Friidrett03.04.974-h1 (G-18/19)Asker, Askerlekene 201605.06.16
-----540--------------------
-----550--------------------
-----560--------------------
8,26(+1,7)Erling Tveter, Asker Sk. Friidrett25.04.971-h1 (G-17)Asker, Askerlekene 201401.06.14
-----570--------------------
-----580--------------------
-----590--------------------
-----600--------------------
-----610--------------------
-----620--------------------
-----630--------------------
-----640--------------------
8,38(+1,7)Christoffer Bjelke, Asker Sk. Friidrett30.06.972-h1 (G-17)Asker, Askerlekene 201401.06.14
-----650--------------------
-----660--------------------
-----670--------------------
-----680--------------------
-----690--------------------
-----700--------------------
-----710--------------------
-----720--------------------
-----730--------------------
-----740--------------------
-----750--------------------
-----760--------------------
-----770--------------------
-----780--------------------
-----790--------------------
-----800--------------------
8,76(+2,0)Petter Børkeeiet, Asker Sk. Friidrett10.06.663Asker, Askerlekene 201401.06.14
8,77(+0,3)Kristian Andreas Bøe Hilden, Asker Sk. Friidrett05.09.974-h2 (G-15)Asker, Askerlekene 201203.06.12
-----810--------------------
-----820--------------------
-----830--------------------
-----840--------------------
-----850--------------------
-----860--------------------
-----870--------------------
-----880--------------------
-----890--------------------
-----900--------------------
-----910--------------------
-----920--------------------
-----930--------------------
-----940--------------------
-----950--------------------
Utenlandske statsborgere for norske klubber
ResultatNavn, KlubbF.DatoPlasseringStedR.Dato
7,39(+2,0)Juan Martin Catelen (ARG), Asker Sk. Friidrett22.12.812Asker, Askerlekene 201401.06.14
7,83(+0,3)Izzatulah Sultani (AFG), Asker Sk. Friidrett12.03.972-fi (G-17)Asker, Askerlekene 201401.06.14

Manuelt Supplement
ResultatNavn, KlubbF.DatoPlasseringStedR.Dato
-----10--------------------
-----20--------------------
-----30--------------------
-----40--------------------
-----50--------------------
-----60--------------------
-----70--------------------
-----80--------------------
-----90--------------------
-----100--------------------
-----110--------------------
-----120--------------------
-----130--------------------
-----140--------------------
-----150--------------------
-----160--------------------

Ikke godkjente resultater
For mye vind
ResultatNavn, KlubbF.DatoPlasseringStedR.Dato
7,31(+4,1)Ole Marius Strøhm, Asker Sk. Friidrett18.01.991-h1 (G-16)Asker, Askerlekene 201507.06.15
7,43(+3,3)Sondre Johre, Asker Sk. Friidrett28.08.931 (G-18/19)Asker, Askerlekene 201112.06.11
7,53(+3,3)Izzatulah Sultani (AFG), Asker Sk. Friidrett12.03.973-fi (G-18/19)Asker, Askerlekene 201507.06.15
7,74(+3,8)Magnus Kvale Thom, Asker Sk. Friidrett21.03.972-h1 (G-18/19)Asker, Askerlekene 201507.06.15

Manglende informasjon om vind
ResultatNavn, KlubbF.DatoPlasseringStedR.Dato

Ekstra løp
ResultatNavn, KlubbF.DatoPlasseringStedR.Dato

Ikke medlem av NFIF
ResultatNavn, KlubbF.DatoPlasseringStedR.Dato

Feilplassert målkamera
ResultatNavn, KlubbF.DatoPlasseringStedR.Dato

80 meter

ResultatNavn, KlubbF.DatoPlasseringStedR.Dato
-----10--------------------
9,52(+1,2)Tobias Windjusveen, Asker Sk. Friidrett27.08.026-fi-A (G-15)Gøteborg/SWE, Världsungdomsspelen 201701.07.17
-----20--------------------
-----30--------------------
-----40--------------------
-----50--------------------
10,02(+1,6)Henrik Dahlen Annexstad, Asker Sk. Friidrett23.11.021 (G-17)Asker, Kretsstevne 1 - løp29.05.19
-----60--------------------
-----70--------------------
-----80--------------------
-----90--------------------
10,39(+1,6)August Østbø Johansen, Asker Sk. Friidrett12.08.041 (G-15)Asker, Kretsstevne 1 - løp29.05.19
-----100--------------------
10,59(+0,9)Theodor Kleven Svendsen, Asker Sk. Friidrett29.05.011 (G-15)Asker, Kretsstevne 109.05.16
-----110--------------------
-----120--------------------
-----130--------------------
-----140--------------------
-----150--------------------
-----160--------------------
Utenlandske statsborgere for norske klubber
ResultatNavn, KlubbF.DatoPlasseringStedR.Dato

Manuelt Supplement
ResultatNavn, KlubbF.DatoPlasseringStedR.Dato
-----10--------------------

Ikke godkjente resultater
For mye vind
ResultatNavn, KlubbF.DatoPlasseringStedR.Dato
10,22(+2,1)Lukas Øiseth, Asker Sk. Friidrett29.08.047-h3 (G-15)Gøteborg/SWE, Världsungdomsspelen 201929.06.19

Manglende informasjon om vind
ResultatNavn, KlubbF.DatoPlasseringStedR.Dato

Ikke medlem av NFIF
ResultatNavn, KlubbF.DatoPlasseringStedR.Dato

100 meter

ResultatNavn, KlubbF.DatoPlasseringStedR.Dato
-----10--------------------
-----20--------------------
-----30--------------------
-----40--------------------
-----50--------------------
-----60--------------------
-----70--------------------
-----80--------------------
-----90--------------------
-----100--------------------
-----110--------------------
-----120--------------------
-----130--------------------
-----140--------------------
-----150--------------------
-----160--------------------
-----170--------------------
-----180--------------------
-----190--------------------
-----200--------------------
-----210--------------------
-----220--------------------
-----230--------------------
-----240--------------------
-----250--------------------
-----260--------------------
-----270--------------------
-----280--------------------
-----290--------------------
-----300--------------------
-----310--------------------
-----320--------------------
-----330--------------------
11,58(+1,4)Sondre Johre, Asker Sk. Friidrett28.08.933-h3Oslo/Bi, Sommerstevne II17.07.12
-----340--------------------
-----350--------------------
-----360--------------------
-----370--------------------
-----380--------------------
-----390--------------------
-----400--------------------
-----410--------------------
11,68(+0,6)Tobias Dale, Asker Sk. Friidrett04.01.975-h1 (G-18/19)Lillestrøm, UM 201511.09.15
-----420--------------------
-----430--------------------
-----440--------------------
-----450--------------------
11,74(+1,2)Ole Marius Strøhm, Asker Sk. Friidrett18.01.996-sf2 (G-16)Lillestrøm, UM 201511.09.15
-----460--------------------
-----470--------------------
-----480--------------------
-----490--------------------
-----500--------------------
-----510--------------------
-----520--------------------
-----530--------------------
11,86(-3,7)Mikkel Bugge, Asker Sk. Friidrett28.08.891Asker, Kretsstevne25.05.11
-----540--------------------
-----550--------------------
-----560--------------------
-----570--------------------
-----580--------------------
-----590--------------------
-----600--------------------
-----610--------------------
11,95(+0,6)Peter Svoren, Asker Sk. Friidrett18.04.015-h1 (G-16)Nadderud, Tyrvinglekene 201718.06.17
-----620--------------------
-----630--------------------
-----640--------------------
-----650--------------------
-----660--------------------
-----670--------------------
-----680--------------------
12,01(+1,8)Henrik Dahlen Annexstad, Asker Sk. Friidrett23.11.026-h2 (G-17)Jessheim, UM06.09.19
-----690--------------------
-----700--------------------
-----710--------------------
-----720--------------------
-----730--------------------
-----740--------------------
-----750--------------------
-----760--------------------
-----770--------------------
-----780--------------------
-----790--------------------
-----800--------------------
-----810--------------------
-----820--------------------
-----830--------------------
-----840--------------------
-----850--------------------
-----860--------------------
-----870--------------------
-----880--------------------
-----890--------------------
-----900--------------------
-----910--------------------
-----920--------------------
-----930--------------------
-----940--------------------
-----950--------------------
-----960--------------------
-----970--------------------
-----980--------------------
-----990--------------------
-----1000--------------------
-----1010--------------------
-----1020--------------------
-----1030--------------------
-----1040--------------------
12,43(-0,3)Lukas Øiseth, Asker Sk. Friidrett29.08.043 (G-15)Asker, Askerlekene 201907.06.19
-----1050--------------------
-----1060--------------------
12,45(-0,6)Espen Frøseth Solheim, Asker Sk. Friidrett06.09.921 (G-18/19)Asker, Kretsstevne løp31.08.11
12,46(+0,1)Magnus Kvale Thom, Asker Sk. Friidrett21.03.972 (G-15)Asker, Kretsstevne Løp10.09.12
-----1070--------------------
-----1080--------------------
-----1090--------------------
-----1100--------------------
-----1110--------------------
-----1120--------------------
-----1130--------------------
-----1140--------------------
-----1150--------------------
-----1160--------------------
-----1170--------------------
-----1180--------------------
-----1190--------------------
-----1200--------------------
-----1210--------------------
-----1220--------------------
-----1230--------------------
-----1240--------------------
-----1250--------------------
12,68(-3,7)Morten Fronth, Asker Sk. Friidrett01.01.951 (G-16)Asker, Kretsstevne25.05.11
-----1260--------------------
-----1270--------------------
-----1280--------------------
-----1290--------------------
12,71(+0,2)Kristoffer Hørven, Asker Sk. Friidrett30.04.826-h1Asker, Askerlekene 201907.06.19
-----1300--------------------
-----1310--------------------
-----1320--------------------
-----1330--------------------
-----1340--------------------
-----1350--------------------
-----1360--------------------
-----1370--------------------
12,81(+0,9)August Østbø Johansen, Asker Sk. Friidrett12.08.043-h1 (G-15)Oslo/St, Groruddalslekene18.08.19
-----1380--------------------
-----1390--------------------
12,84(+0,1)Martin Granøien Monsen, Asker Sk. Friidrett05.01.973 (G-15)Asker, Kretsstevne Løp10.09.12
-----1400--------------------
-----1410--------------------
-----1420--------------------
-----1430--------------------
-----1440--------------------
-----1450--------------------
-----1460--------------------
12,91(-0,6)Sondre Jahren, Asker Sk. Friidrett02.02.042 (G-15)Asker, Kretsstevne 2 - løp26.08.19
-----1470--------------------
-----1480--------------------
-----1490--------------------
12,96(+1,2)Freddy Hørven, Asker Sk. Friidrett12.05.534-h1Oslo/Bi, Avslutningsstevne I19.09.13
-----1500--------------------
-----1510--------------------
12,98(+1,5)Theodor Kleven Svendsen, Asker Sk. Friidrett29.05.016-h2 (G-15)Nadderud, Oslo Sportslager Tyrvinglekene12.06.16
-----1520--------------------
-----1530--------------------
-----1540--------------------
-----1550--------------------
-----1560--------------------
-----1570--------------------
-----1580--------------------
13,08(-1,2)Thor Olav Rosvold, Asker Sk. Friidrett02.07.961 (G-16)Greveskogen, Seriestevne20.10.12
-----1590--------------------
-----1600--------------------
-----1610--------------------
-----1620--------------------
-----1630--------------------
-----1640--------------------
-----1650--------------------
-----1660--------------------
-----1670--------------------
-----1680--------------------
-----1690--------------------
-----1700--------------------
-----1710--------------------
-----1720--------------------
-----1730--------------------
-----1740--------------------
-----1750--------------------
-----1760--------------------
-----1770--------------------
-----1780--------------------
-----1790--------------------
-----1800--------------------
-----1810--------------------
-----1820--------------------
-----1830--------------------
-----1840--------------------
-----1850--------------------
13,51(+1,6)Ingar Wilhelm Nilsen, Asker Sk. Friidrett11.05.684-h1 (MV45)Knarvik, Veteran NM 201723.06.17
-----1860--------------------
-----1870--------------------
-----1880--------------------
-----1890--------------------
-----1900--------------------
-----1910--------------------
-----1920--------------------
-----1930--------------------
-----1940--------------------
-----1950--------------------
-----1960--------------------
-----1970--------------------
-----1980--------------------
-----1990--------------------
-----2000--------------------
-----2010--------------------
-----2020--------------------
-----2030--------------------
-----2040--------------------
-----2050--------------------
-----2060--------------------
-----2070--------------------
-----2080--------------------
-----2090--------------------
-----2100--------------------
-----2110--------------------
-----2120--------------------
-----2130--------------------
-----2140--------------------
-----2150--------------------
-----2160--------------------
-----2170--------------------
-----2180--------------------
-----2190--------------------
-----2200--------------------
-----2210--------------------
-----2220--------------------
-----2230--------------------
-----2240--------------------
-----2250--------------------
-----2260--------------------
-----2270--------------------
-----2280--------------------
-----2290--------------------
-----2300--------------------
-----2310--------------------
-----2320--------------------
-----2330--------------------
-----2340--------------------
-----2350--------------------
-----2360--------------------
-----2370--------------------
-----2380--------------------
-----2390--------------------
-----2400--------------------
Utenlandske statsborgere for norske klubber
ResultatNavn, KlubbF.DatoPlasseringStedR.Dato
11,60(+1,7)Juan Martin Catelen (ARG), Asker Sk. Friidrett22.12.817-h2Oslo/Bi, Norwegian Grand Prix22.05.14
12,26(-1,4)Izzatulah Sultani (AFG), Asker Sk. Friidrett12.03.971 (G-18/19)Drammen, Åpningsstevne 201514.05.15

Manuelt Supplement
ResultatNavn, KlubbF.DatoPlasseringStedR.Dato
-----10--------------------
-----20--------------------
-----30--------------------
-----40--------------------
-----50--------------------
-----60--------------------
-----70--------------------
-----80--------------------
12,8(+0,3)Martin Granøien Monsen, Asker Sk. Friidrett05.01.973 (G-15)Asker, Utvidet Lagseriestevne27.08.12
-----90--------------------
-----100--------------------
13,2(+0,3)Erling Tveter, Asker Sk. Friidrett25.04.974 (G-15)Asker, Utvidet Lagseriestevne27.08.12
-----110--------------------
-----120--------------------
-----130--------------------
-----140--------------------
-----150--------------------
-----160--------------------
-----170--------------------
-----180--------------------
-----190--------------------
-----200--------------------
-----210--------------------
-----220--------------------
-----230--------------------

Ikke godkjente resultater
Feilplassert vindmåler/Irregular wind gauge position
ResultatNavn, KlubbF.DatoPlasseringStedR.Dato

For mye vind
ResultatNavn, KlubbF.DatoPlasseringStedR.Dato
11,58(+2,4)Ole Marius Strøhm, Asker Sk. Friidrett18.01.994-h1 (G-17)Sandnes, UM 201602.09.16
12,85(+3,0)Freddy Hørven, Asker Sk. Friidrett12.05.531 (MV60)Ravnanger, NM Veteran 201420.06.14

Manglende informasjon om vind
ResultatNavn, KlubbF.DatoPlasseringStedR.Dato

Ekstra løp
ResultatNavn, KlubbF.DatoPlasseringStedR.Dato

Ikke medlem av NFIF
ResultatNavn, KlubbF.DatoPlasseringStedR.Dato

150 meter

ResultatNavn, KlubbF.DatoPlasseringStedR.Dato
-----10--------------------
-----20--------------------
-----30--------------------
-----40--------------------
-----50--------------------
-----60--------------------
-----70--------------------
-----80--------------------
-----90--------------------
-----100--------------------
-----110--------------------
-----120--------------------
-----130--------------------
-----140--------------------
-----150--------------------
-----160--------------------
-----170--------------------
-----180--------------------
-----190--------------------
-----200--------------------
-----210--------------------
Ikke godkjent bane
ResultatNavn, KlubbF.DatoPlasseringStedR.Dato
Utenlandske statsborgere for norske klubber
ResultatNavn, KlubbF.DatoPlasseringStedR.Dato

Ikke godkjente resultater
For mye vind
ResultatNavn, KlubbF.DatoPlasseringStedR.Dato

Manglende informasjon om vind
ResultatNavn, KlubbF.DatoPlasseringStedR.Dato

Ikke medlem av NFIF
ResultatNavn, KlubbF.DatoPlasseringStedR.Dato

Manglende merking
ResultatNavn, KlubbF.DatoPlasseringStedR.Dato

200 meter

ResultatNavn, KlubbF.DatoPlasseringStedR.Dato
-----10--------------------
-----20--------------------
-----30--------------------
-----40--------------------
-----50--------------------
-----60--------------------
-----70--------------------
-----80--------------------
-----90--------------------
-----100--------------------
-----110--------------------
-----120--------------------
-----130--------------------
-----140--------------------
-----150--------------------
-----160--------------------
-----170--------------------
-----180--------------------
-----190--------------------
-----200--------------------
-----210--------------------
-----220--------------------
-----230--------------------
-----240--------------------
-----250--------------------
-----260--------------------
-----270--------------------
-----280--------------------
23,19(+0,9)Sondre Johre, Asker Sk. Friidrett28.08.934 (G-18/19)Oslo/Bi, Mizuno Norway Games 201218.08.12
-----290--------------------
-----300--------------------
-----310--------------------
23,38(+1,5)Tobias Dale, Asker Sk. Friidrett04.01.971-h2 (G-18/19)Asker, Askerlekene 201506.06.15
-----320--------------------
-----330--------------------
-----340--------------------
-----350--------------------
-----360--------------------
-----370--------------------
-----380--------------------
-----390--------------------
-----400--------------------
-----410--------------------
-----420--------------------
-----430--------------------
-----440--------------------
-----450--------------------
-----460--------------------
23,85(+1,1)Ole Marius Strøhm, Asker Sk. Friidrett18.01.995-h2 (G-17)Sandnes, UM 201603.09.16
-----470--------------------
-----480--------------------
23,91(+1,1)Jon Emil Steine, Asker Sk. Friidrett06.02.984-h2 (G-18/19)Nadderud, Tyrvinglekene 201716.06.17
-----490--------------------
-----500--------------------
-----510--------------------
24,02(+1,3)Henrik Dahlen Annexstad, Asker Sk. Friidrett23.11.021 (G-17)Oslo/Bi, Tjalvelekene 201902.06.19
-----520--------------------
-----530--------------------
-----540--------------------
-----550--------------------
-----560--------------------
-----570--------------------
-----580--------------------
-----590--------------------
-----600--------------------
-----610--------------------
-----620--------------------
-----630--------------------
-----640--------------------
-----650--------------------
-----660--------------------
-----670--------------------
-----680--------------------
-----690--------------------
-----700--------------------
-----710--------------------
-----720--------------------
-----730--------------------
-----740--------------------
-----750--------------------
-----760--------------------
-----770--------------------
-----780--------------------
-----790--------------------
-----800--------------------
-----810--------------------
-----820--------------------
24,93(+1,4)Lukas Øiseth, Asker Sk. Friidrett29.08.043 (G-15)Oslo/Bi, Tjalvelekene 201902.06.19
-----830--------------------
-----840--------------------
-----850--------------------
-----860--------------------
-----870--------------------
-----880--------------------
-----890--------------------
-----900--------------------
25,16(+0,5)Kristoffer Hørven, Asker Sk. Friidrett30.04.822-h1Asker, Askerlekene 201809.06.18
-----910--------------------
-----920--------------------
-----930--------------------
-----940--------------------
-----950--------------------
-----960--------------------
25,34(+0,3)Martin Granøien Monsen, Asker Sk. Friidrett05.01.972-h2 (G-17)Asker, Askerlekene 201431.05.14
-----970--------------------
-----980--------------------
-----990--------------------
-----1000--------------------
-----1010--------------------
-----1020--------------------
-----1030--------------------
-----1040--------------------
-----1050--------------------
25,63(+1,8)Magnus Kvale Thom, Asker Sk. Friidrett21.03.974-h1 (G-18/19)Asker, Askerlekene 201506.06.15
-----1060--------------------
-----1070--------------------
-----1080--------------------
-----1090--------------------
-----1100--------------------
-----1110--------------------
25,80(+1,1)August Østbø Johansen, Asker Sk. Friidrett12.08.043-h1 (G-15)Jessheim, Norgeslekene11.08.19
-----1120--------------------
-----1130--------------------
-----1140--------------------
-----1150--------------------
-----1160--------------------
-----1170--------------------
25,98(+0,0)Freddy Hørven, Asker Sk. Friidrett12.05.531 (MV60)Moss, Nordic Veteran Championship 201329.06.13
-----1180--------------------
-----1190--------------------
-----1200--------------------
-----1210--------------------
-----1220--------------------
-----1230--------------------
-----1240--------------------
-----1250--------------------
26,29(+0,4)Jacob Lauritzen, Asker Sk. Friidrett03.01.974-h1 (G-16)Asker, Askerlekene 201301.06.13
-----1260--------------------
-----1270--------------------
26,37(ok)Øystein S. Klemetsdal, Asker Sk. Friidrett01.03.912Selbu, Selbulekene 201215.09.12
-----1280--------------------
-----1290--------------------
-----1300--------------------
-----1310--------------------
26,53(+0,3)Mats Abotnes, Asker Sk. Friidrett01.12.004 (G-15)Asker, Askerlekene 201506.06.15
26,56(-1,2)Theodor Kleven Svendsen, Asker Sk. Friidrett29.05.013 (G-15)Asker, Askerlekene 201604.06.16
-----1320--------------------
-----1330--------------------
-----1340--------------------
-----1350--------------------
-----1360--------------------
-----1370--------------------
-----1380--------------------
26,82(+0,4)Kristian Andreas Bøe Hilden, Asker Sk. Friidrett05.09.975-h1 (G-16)Asker, Askerlekene 201301.06.13
-----1390--------------------
-----1400--------------------
-----1410--------------------
-----1420--------------------
-----1430--------------------
-----1440--------------------
-----1450--------------------
-----1460--------------------
-----1470--------------------
-----1480--------------------
-----1490--------------------
-----1500--------------------
-----1510--------------------
-----1520--------------------
-----1530--------------------
-----1540--------------------
-----1550--------------------
-----1560--------------------
27,85(+0,6)Erling Tveter, Asker Sk. Friidrett25.04.973-h2 (G-15)Asker, Askerlekene 201202.06.12
-----1570--------------------
-----1580--------------------
-----1590--------------------
28,05(-0,6)Lars Kvalum, Asker Sk. Friidrett23.05.953-h2 (G-16)Asker, Askerlekene 201111.06.11
-----1600--------------------
28,11(+1,7)Ingar Wilhelm Nilsen, Asker Sk. Friidrett11.05.685-h1 (MV45)Knarvik, Veteran NM 201724.06.17
-----1610--------------------
28,23(+0,3)Christoffer Bjelke, Asker Sk. Friidrett30.06.974-h2 (G-17)Asker, Askerlekene 201431.05.14
-----1620--------------------
-----1630--------------------
-----1640--------------------
-----1650--------------------
-----1660--------------------
-----1670--------------------
-----1680--------------------
-----1690--------------------
-----1700--------------------
-----1710--------------------
-----1720--------------------
-----1730--------------------
-----1740--------------------
-----1750--------------------
-----1760--------------------
-----1770--------------------
-----1780--------------------
-----1790--------------------
-----1800--------------------
-----1810--------------------
-----1820--------------------
-----1830--------------------
-----1840--------------------
-----1850--------------------
-----1860--------------------
-----1870--------------------
-----1880--------------------
-----1890--------------------
-----1900--------------------
Utenlandske statsborgere for norske klubber
ResultatNavn, KlubbF.DatoPlasseringStedR.Dato
23,62(+1,2)Juan Martin Catelen (ARG), Asker Sk. Friidrett22.12.814Asker, Askerlekene 201431.05.14
24,62(+1,5)Izzatulah Sultani (AFG), Asker Sk. Friidrett12.03.973-h2 (G-18/19)Asker, Askerlekene 201506.06.15

Manuelt Supplement
ResultatNavn, KlubbF.DatoPlasseringStedR.Dato
-----10--------------------
-----20--------------------
-----30--------------------
-----40--------------------
-----50--------------------
-----60--------------------
-----70--------------------
-----80--------------------

Ikke godkjente resultater
For mye vind
ResultatNavn, KlubbF.DatoPlasseringStedR.Dato
23,32(+2,8)Tobias Dale, Asker Sk. Friidrett04.01.972-h1 (G-18/19)Asker, Askerlekene 201604.06.16
23,36(+2,8)Ole Marius Strøhm, Asker Sk. Friidrett18.01.991-h1 (G-17)Asker, Askerlekene 201604.06.16
24,80(+2,2)Lukas Øiseth, Asker Sk. Friidrett29.08.043-h3 (G-15)Nadderud, Oslo Sportslager Tyrvinglekene15.06.19

Manglende informasjon om vind
ResultatNavn, KlubbF.DatoPlasseringStedR.Dato

Ikke medlem av NFIF
ResultatNavn, KlubbF.DatoPlasseringStedR.Dato

300 meter

ResultatNavn, KlubbF.DatoPlasseringStedR.Dato
-----10--------------------
-----20--------------------
-----30--------------------
-----40--------------------
-----50--------------------
-----60--------------------
-----70--------------------
-----80--------------------
-----90--------------------
-----100--------------------
-----110--------------------
-----120--------------------
-----130--------------------
-----140--------------------
-----150--------------------
-----160--------------------
-----170--------------------
-----180--------------------
-----190--------------------
-----200--------------------
-----210--------------------
-----220--------------------
36,58Mads Kloster, Asker Sk. Friidrett27.04.881Oslo/La27.09.05
-----230--------------------
-----240--------------------
-----250--------------------
-----260--------------------
-----270--------------------
-----280--------------------
-----290--------------------
-----300--------------------
-----310--------------------
-----320--------------------
-----330--------------------
37,10Mikkel Bugge, Asker Sk. Friidrett28.08.89MMoss17.06.06
-----340--------------------
-----350--------------------
-----360--------------------
37,34Stian Alexander Johnsen, Asker Sk. Friidrett05.08.901Oslo/Bi19.05.09
-----370--------------------
-----380--------------------
-----390--------------------
-----400--------------------
-----410--------------------
-----420--------------------
-----430--------------------
-----440--------------------
-----450--------------------
-----460--------------------
38,60Tobias Windjusveen, Asker Sk. Friidrett27.08.021-h3 (G-15)Gøteborg/SWE, Världsungdomsspelen 201702.07.17
-----470--------------------
-----480--------------------
-----490--------------------
39,10Lukas Øiseth, Asker Sk. Friidrett29.08.041-h4 (G-15)Gøteborg/SWE, Världsungdomsspelen 201930.06.19
-----500--------------------
-----510--------------------
-----520--------------------
-----530--------------------
-----540--------------------
-----550--------------------
-----560--------------------
-----570--------------------
-----580--------------------
-----590--------------------
-----600--------------------
-----610--------------------
-----620--------------------
-----630--------------------
-----640--------------------
41,92August Østbø Johansen, Asker Sk. Friidrett12.08.041 (G-15)Asker, Kretsstevne 1 - løp29.05.19
-----650--------------------
42,06Martin Granøien Monsen, Asker Sk. Friidrett05.01.971 (G-15)Asker, Kretsstevne Løp10.09.12
-----660--------------------
-----670--------------------
-----680--------------------
-----690--------------------
-----700--------------------
-----710--------------------
-----720--------------------
-----730--------------------
-----740--------------------
-----750--------------------
-----760--------------------
Utenlandske statsborgere for norske klubber
ResultatNavn, KlubbF.DatoPlasseringStedR.Dato
40,43Izzatulah Sultani (AFG), Asker Sk. Friidrett12.03.971 (G-17)Asker, Kretsstevne19.05.14

Manuelt Supplement
ResultatNavn, KlubbF.DatoPlasseringStedR.Dato
-----10--------------------
-----20--------------------
-----30--------------------
-----40--------------------
-----50--------------------
-----60--------------------
-----70--------------------
-----80--------------------
-----90--------------------
-----100--------------------
37,2Freddy Hørven, Asker Sk. Friidrett12.05.531Asker25.09.00
-----110--------------------
-----120--------------------

Ikke godkjente resultater
ResultatNavn, KlubbF.DatoPlasseringStedR.Dato

ResultatNavn, KlubbF.DatoPlasseringStedR.Dato

ResultatNavn, KlubbF.DatoPlasseringStedR.Dato

ResultatNavn, KlubbF.DatoPlasseringStedR.Dato

400 meter

ResultatNavn, KlubbF.DatoPlasseringStedR.Dato
-----10--------------------
-----20--------------------
-----30--------------------
-----40--------------------
-----50--------------------
-----60--------------------
-----70--------------------
-----80--------------------
-----90--------------------
-----100--------------------
-----110--------------------
-----120--------------------
-----130--------------------
-----140--------------------
-----150--------------------
-----160--------------------
-----170--------------------
-----180--------------------
-----190--------------------
-----200--------------------
-----210--------------------
-----220--------------------
-----230--------------------
-----240--------------------
-----250--------------------
-----260--------------------
-----270--------------------
-----280--------------------
-----290--------------------
-----300--------------------
-----310--------------------
-----320--------------------
-----330--------------------
-----340--------------------
-----350--------------------
-----360--------------------
-----370--------------------
-----380--------------------
-----390--------------------
-----400--------------------
-----410--------------------
-----420--------------------
-----430--------------------
-----440--------------------
-----450--------------------
-----460--------------------
-----470--------------------
-----480--------------------
-----490--------------------
-----500--------------------
-----510--------------------
-----520--------------------
-----530--------------------
-----540--------------------
-----550--------------------
-----560--------------------
-----570--------------------
-----580--------------------
-----590--------------------
-----600--------------------
-----610--------------------
-----620--------------------
-----630--------------------
-----640--------------------
-----650--------------------
-----660--------------------
-----670--------------------
-----680--------------------
-----690--------------------
-----700--------------------
-----710--------------------
-----720--------------------
-----730--------------------
-----740--------------------
-----750--------------------
-----760--------------------
-----770--------------------
-----780--------------------
-----790--------------------
-----800--------------------
-----810--------------------
-----820--------------------
-----830--------------------
-----840--------------------
-----850--------------------
-----860--------------------
-----870--------------------
-----880--------------------
-----890--------------------
-----900--------------------
-----910--------------------
-----920--------------------
-----930--------------------
-----940--------------------
-----950--------------------
-----960--------------------
54,17Jon Emil Steine, Asker Sk. Friidrett06.02.984-h2Asker, Askerlekene 201711.06.17
-----970--------------------
-----980--------------------
-----990--------------------
-----1000--------------------
-----1010--------------------
-----1020--------------------
-----1030--------------------
-----1040--------------------
-----1050--------------------
-----1060--------------------
-----1070--------------------
-----1080--------------------
-----1090--------------------
-----1100--------------------
-----1110--------------------
-----1120--------------------
-----1130--------------------
55,98Lukas Øiseth, Asker Sk. Friidrett29.08.041 (G-15)Asker, Kretsstevne 2 - løp26.08.19
-----1140--------------------
-----1150--------------------
-----1160--------------------
-----1170--------------------
-----1180--------------------
-----1190--------------------
-----1200--------------------
-----1210--------------------
-----1220--------------------
-----1230--------------------
-----1240--------------------
57,18Henrik Dahlen Annexstad, Asker Sk. Friidrett23.11.021 (G-17)Asker, Kretsstevne 2 - løp26.08.19
-----1250--------------------
57,32Øystein S. Klemetsdal, Asker Sk. Friidrett01.03.914-h1Nadderud, DnB NOR Tyrvinglekene19.06.11
-----1260--------------------
-----1270--------------------
-----1280--------------------
-----1290--------------------
-----1300--------------------
-----1310--------------------
-----1320--------------------
-----1330--------------------
-----1340--------------------
-----1350--------------------
-----1360--------------------
-----1370--------------------
-----1380--------------------
-----1390--------------------
-----1400--------------------
-----1410--------------------
-----1420--------------------
-----1430--------------------
-----1440--------------------
-----1450--------------------
-----1460--------------------
-----1470--------------------
-----1480--------------------
-----1490--------------------
-----1500--------------------
-----1510--------------------
-----1520--------------------
-----1530--------------------
-----1540--------------------
-----1550--------------------
-----1560--------------------
-----1570--------------------
-----1580--------------------
-----1590--------------------
-----1600--------------------
-----1610--------------------
-----1620--------------------
-----1630--------------------
-----1640--------------------
-----1650--------------------
-----1660--------------------
-----1670--------------------
-----1680--------------------
-----1690--------------------
-----1700--------------------
-----1710--------------------
-----1720--------------------
-----1730--------------------
-----1740--------------------
-----1750--------------------
-----1760--------------------
-----1770--------------------
-----1780--------------------
-----1790--------------------
Utenlandske statsborgere for norske klubber
ResultatNavn, KlubbF.DatoPlasseringStedR.Dato
55,75Izzatulah Sultani (AFG), Asker Sk. Friidrett12.03.974-h1 (G-18/19)Nadderud, Oslo Sportslager Tyrvinglekene14.06.15

Manuelt Supplement
ResultatNavn, KlubbF.DatoPlasseringStedR.Dato
-----10--------------------
-----20--------------------
-----30--------------------
-----40--------------------
-----50--------------------
-----60--------------------
-----70--------------------
-----80--------------------
-----90--------------------
-----100--------------------
-----110--------------------
-----120--------------------
-----130--------------------
-----140--------------------
-----150--------------------
-----160--------------------
-----170--------------------
-----180--------------------
-----190--------------------
-----200--------------------
-----210--------------------
-----220--------------------
-----230--------------------
-----240--------------------
-----250--------------------
-----260--------------------
-----270--------------------
-----280--------------------
-----290--------------------
-----300--------------------
-----310--------------------
-----320--------------------
-----330--------------------
-----340--------------------
-----350--------------------
-----360--------------------

Ikke godkjente resultater
Ikke medlem av NFIF
ResultatNavn, KlubbF.DatoPlasseringStedR.Dato

ResultatNavn, KlubbF.DatoPlasseringStedR.Dato

ResultatNavn, KlubbF.DatoPlasseringStedR.Dato

ResultatNavn, KlubbF.DatoPlasseringStedR.Dato

ResultatNavn, KlubbF.DatoPlasseringStedR.Dato

ResultatNavn, KlubbF.DatoPlasseringStedR.Dato

ResultatNavn, KlubbF.DatoPlasseringStedR.Dato

ResultatNavn, KlubbF.DatoPlasseringStedR.Dato

ResultatNavn, KlubbF.DatoPlasseringStedR.Dato

600 meter

ResultatNavn, KlubbF.DatoPlasseringStedR.Dato
-----10--------------------
-----20--------------------
-----30--------------------
-----40--------------------
-----50--------------------
-----60--------------------
-----70--------------------
-----80--------------------
-----90--------------------
-----100--------------------
-----110--------------------
-----120--------------------
-----130--------------------
-----140--------------------
-----150--------------------
-----160--------------------
-----170--------------------
-----180--------------------
-----190--------------------
-----200--------------------
-----210--------------------
-----220--------------------
-----230--------------------
-----240--------------------
-----250--------------------
-----260--------------------
-----270--------------------
1.29,50Espen Frøseth Solheim, Asker Sk. Friidrett06.09.921 (G-18/19)Asker, Kretsstevne løp31.08.11
-----280--------------------
-----290--------------------
-----300--------------------
-----310--------------------
-----320--------------------
-----330--------------------
-----340--------------------
-----350--------------------
-----360--------------------
-----370--------------------
-----380--------------------
1,34,16Emil Wiik, Asker Sk. Friidrett21.11.971Asker, Holmenkolluttak07.05.19
-----390--------------------
-----400--------------------
1,35,26Henrik Aas, Asker Sk. Friidrett26.07.002Asker, Holmenkolluttak07.05.19
-----410--------------------
-----420--------------------
1,35,79Simen Løbak, Asker Sk. Friidrett31.05.003Asker, Holmenkolluttak07.05.19
-----430--------------------
-----440--------------------
1,36,50Jonas Berglund Aalberg, Asker Sk. Friidrett06.06.884Asker, Holmenkolluttak07.05.19
-----450--------------------
1,37,11Eirik Asdøl, Asker Sk. Friidrett23.01.935Asker, Holmenkolluttak07.05.19
-----460--------------------
1,37,68Hallvard Moian Nydal, Asker Sk. Friidrett27.10.886Asker, Holmenkolluttak07.05.19
-----470--------------------
-----480--------------------
-----490--------------------
1,38,82Marcus Holter Larsen, Asker Sk. Friidrett15.03.037Asker, Holmenkolluttak07.05.19
-----500--------------------
-----510--------------------
1,40,11Jonas Maukon Myhr, Asker Sk. Friidrett16.10.038Asker, Holmenkolluttak07.05.19
1,40,43Jens Christian Grymyr, Asker Sk. Friidrett12.01.9910Asker, Holmenkolluttak07.05.19
-----520--------------------
-----530--------------------
-----540--------------------
-----550--------------------
-----560--------------------
-----570--------------------
-----580--------------------
-----590--------------------
-----600--------------------
-----610--------------------
-----620--------------------
-----630--------------------
-----640--------------------
-----650--------------------
1,52,46Anders Lervik, Asker Sk. Friidrett18.09.9911Asker, Holmenkolluttak07.05.19
-----660--------------------
-----670--------------------
1,57,32Ole Stornes Iversen, Asker Sk. Friidrett20.07.0112Asker, Holmenkolluttak07.05.19
-----680--------------------
1,59,06Emil Håkon Lier, Asker Sk. Friidrett14.11.9713Asker, Holmenkolluttak07.05.19
-----690--------------------
-----700--------------------
-----710--------------------
Utenlandske statsborgere for norske klubber
ResultatNavn, KlubbF.DatoPlasseringStedR.Dato
1,40,34Ryan Wah Jackson (CAN), Asker Sk. Friidrett11.03.979Asker, Holmenkolluttak07.05.19

Ikke godkjente resultater
Ikke medlem av NFIF
ResultatNavn, KlubbF.DatoPlasseringStedR.Dato

Utilstrekkelig tidtagning
ResultatNavn, KlubbF.DatoPlasseringStedR.Dato

ResultatNavn, KlubbF.DatoPlasseringStedR.Dato

ResultatNavn, KlubbF.DatoPlasseringStedR.Dato

ResultatNavn, KlubbF.DatoPlasseringStedR.Dato

800 meter

ResultatNavn, KlubbF.DatoPlasseringStedR.Dato
-----10--------------------
-----20--------------------
-----30--------------------
-----40--------------------
-----50--------------------
-----60--------------------
-----70--------------------
-----80--------------------
-----90--------------------
-----100--------------------
-----110--------------------
-----120--------------------
-----130--------------------
-----140--------------------
-----150--------------------
-----160--------------------
-----170--------------------
-----180--------------------
-----190--------------------
-----200--------------------
-----210--------------------
-----220--------------------
-----230--------------------
-----240--------------------
-----250--------------------
-----260--------------------
-----270--------------------
-----280--------------------
-----290--------------------
-----300--------------------
-----310--------------------
-----320--------------------
-----330--------------------
-----340--------------------
-----350--------------------
-----360--------------------
-----370--------------------
-----380--------------------
-----390--------------------
-----400--------------------
-----410--------------------
-----420--------------------
-----430--------------------
-----440--------------------
-----450--------------------
-----460--------------------
-----470--------------------
-----480--------------------
-----490--------------------
-----500--------------------
-----510--------------------
-----520--------------------
-----530--------------------
-----540--------------------
-----550--------------------
-----560--------------------
-----570--------------------
-----580--------------------
-----590--------------------
-----600--------------------
-----610--------------------
-----620--------------------
-----630--------------------
-----640--------------------
-----650--------------------
-----660--------------------
-----670--------------------
-----680--------------------
-----690--------------------
-----700--------------------
1,54,69Espen Jahren, Asker Sk. Friidrett25.04.662Oslo/Bi13.07.93
-----710--------------------
-----720--------------------
-----730--------------------
-----740--------------------
-----750--------------------
-----760--------------------
-----770--------------------
-----780--------------------
-----790--------------------
-----800--------------------
-----810--------------------
-----820--------------------
-----830--------------------
-----840--------------------
-----850--------------------
-----860--------------------
-----870--------------------
-----880--------------------
-----890--------------------
-----900--------------------
-----910--------------------
-----920--------------------
-----930--------------------
-----940--------------------
-----950--------------------
-----960--------------------
-----970--------------------
-----980--------------------
-----990--------------------
-----1000--------------------
-----1010--------------------
-----1020--------------------
-----1030--------------------
-----1040--------------------
-----1050--------------------
-----1060--------------------
-----1070--------------------
-----1080--------------------
-----1090--------------------
-----1100--------------------
-----1110--------------------
-----1120--------------------
-----1130--------------------
-----1140--------------------
-----1150--------------------
-----1160--------------------
-----1170--------------------
-----1180--------------------
-----1190--------------------
-----1200--------------------
-----1210--------------------
-----1220--------------------
-----1230--------------------
-----1240--------------------
-----1250--------------------
-----1260--------------------
-----1270--------------------
-----1280--------------------
-----1290--------------------
-----1300--------------------
-----1310--------------------
-----1320--------------------
-----1330--------------------
-----1340--------------------
-----1350--------------------
-----1360--------------------
-----1370--------------------
-----1380--------------------
-----1390--------------------
-----1400--------------------
-----1410--------------------
-----1420--------------------
-----1430--------------------
-----1440--------------------
-----1450--------------------
-----1460--------------------
-----1470--------------------
-----1480--------------------
-----1490--------------------
-----1500--------------------
-----1510--------------------
2,09,50Øystein S. Klemetsdal, Asker Sk. Friidrett01.03.911Selbu, Selbulekene 201215.09.12
-----1520--------------------
-----1530--------------------
-----1540--------------------
-----1550--------------------
-----1560--------------------
-----1570--------------------
-----1580--------------------
-----1590--------------------
-----1600--------------------
-----1610--------------------
-----1620--------------------
2,11,75Erling Tveter, Asker Sk. Friidrett25.04.9713 (G-17)Nadderud, DNB Tyrvinglekene14.06.14
-----1630--------------------
-----1640--------------------
-----1650--------------------
2,12,22Lars Brauti, Asker Sk. Friidrett16.01.979-h1Nadderud, Oslo Sportslager Tyrvinglekene13.06.15
-----1660--------------------
-----1670--------------------
-----1680--------------------
-----1690--------------------
-----1700--------------------
-----1710--------------------
-----1720--------------------
-----1730--------------------
-----1740--------------------
-----1750--------------------
-----1760--------------------
-----1770--------------------
-----1780--------------------
-----1790--------------------
-----1800--------------------
-----1810--------------------
-----1820--------------------
-----1830--------------------
-----1840--------------------
-----1850--------------------
-----1860--------------------
-----1870--------------------
-----1880--------------------
-----1890--------------------
-----1900--------------------
-----1910--------------------
-----1920--------------------
-----1930--------------------
-----1940--------------------
-----1950--------------------
-----1960--------------------
-----1970--------------------
-----1980--------------------
-----1990--------------------
-----2000--------------------
-----2010--------------------
-----2020--------------------
-----2030--------------------
-----2040--------------------
-----2050--------------------
-----2060--------------------
-----2070--------------------
-----2080--------------------
-----2090--------------------
-----2100--------------------
-----2110--------------------
-----2120--------------------
-----2130--------------------
-----2140--------------------
-----2150--------------------
-----2160--------------------
-----2170--------------------
-----2180--------------------
-----2190--------------------
-----2200--------------------
-----2210--------------------
-----2220--------------------
2,26,30Martin Haugstad Moosmayer, Asker Sk. Friidrett11.12.997-h1 (G-15)Nadderud, DNB Tyrvinglekene14.06.14
-----2230--------------------
-----2240--------------------
-----2250--------------------
-----2260--------------------
-----2270--------------------
-----2280--------------------
-----2290--------------------
2,27,78Ole Marius Forbord, Asker Sk. Friidrett03.10.951 (G-16)Nadderud, Utvidet lagseriestevne24.05.11
-----2300--------------------
-----2310--------------------
-----2320--------------------
-----2330--------------------
-----2340--------------------
-----2350--------------------
-----2360--------------------
-----2370--------------------
-----2380--------------------
-----2390--------------------
-----2400--------------------
-----2410--------------------
-----2420--------------------
-----2430--------------------
-----2440--------------------
-----2450--------------------
-----2460--------------------
-----2470--------------------
-----2480--------------------
-----2490--------------------
-----2500--------------------
-----2510--------------------
-----2520--------------------
-----2530--------------------
-----2540--------------------
-----2550--------------------
-----2560--------------------
-----2570--------------------
-----2580--------------------
-----2590--------------------
-----2600--------------------
-----2610--------------------
-----2620--------------------
-----2630--------------------
-----2640--------------------
-----2650--------------------
-----2660--------------------
-----2670--------------------
-----2680--------------------
-----2690--------------------
-----2700--------------------
-----2710--------------------
-----2720--------------------
-----2730--------------------
-----2740--------------------
-----2750--------------------
-----2760--------------------
-----2770--------------------
Ikke godkjent bane
ResultatNavn, KlubbF.DatoPlasseringStedR.Dato
Utenlandske statsborgere for norske klubber
ResultatNavn, KlubbF.DatoPlasseringStedR.Dato
2,13,72Izzatulah Sultani (AFG), Asker Sk. Friidrett12.03.976-h1 (G-18/19)Nadderud, Oslo Sportslager Tyrvinglekene13.06.15

Ikke godkjente resultater
Ikke approbert øvelse
ResultatNavn, KlubbF.DatoPlasseringStedR.Dato

Ikke medlem av NFIF
ResultatNavn, KlubbF.DatoPlasseringStedR.Dato

Utilstrekkelig tidtagning
ResultatNavn, KlubbF.DatoPlasseringStedR.Dato

ResultatNavn, KlubbF.DatoPlasseringStedR.Dato

ResultatNavn, KlubbF.DatoPlasseringStedR.Dato

ResultatNavn, KlubbF.DatoPlasseringStedR.Dato

ResultatNavn, KlubbF.DatoPlasseringStedR.Dato

ResultatNavn, KlubbF.DatoPlasseringStedR.Dato

ResultatNavn, KlubbF.DatoPlasseringStedR.Dato

Feilplassert målkamera
ResultatNavn, KlubbF.DatoPlasseringStedR.Dato

1000 meter

ResultatNavn, KlubbF.DatoPlasseringStedR.Dato
-----10--------------------
-----20--------------------
-----30--------------------
-----40--------------------
-----50--------------------
-----60--------------------
-----70--------------------
-----80--------------------
-----90--------------------
-----100--------------------
-----110--------------------
-----120--------------------
-----130--------------------
-----140--------------------
-----150--------------------
-----160--------------------
-----170--------------------
-----180--------------------
-----190--------------------
-----200--------------------
-----210--------------------
-----220--------------------
-----230--------------------
-----240--------------------
-----250--------------------
-----260--------------------
-----270--------------------
-----280--------------------
-----290--------------------
-----300--------------------
-----310--------------------
-----320--------------------
-----330--------------------
-----340--------------------
-----350--------------------
-----360--------------------
-----370--------------------
Utenlandske statsborgere for norske klubber
ResultatNavn, KlubbF.DatoPlasseringStedR.Dato

Ikke godkjente resultater
Ikke medlem av NFIF
ResultatNavn, KlubbF.DatoPlasseringStedR.Dato

Utilstrekkelig tidtagning
ResultatNavn, KlubbF.DatoPlasseringStedR.Dato

ResultatNavn, KlubbF.DatoPlasseringStedR.Dato

1500 meter

ResultatNavn, KlubbF.DatoPlasseringStedR.Dato
-----10--------------------
-----20--------------------
-----30--------------------
-----40--------------------
-----50--------------------
-----60--------------------
-----70--------------------
-----80--------------------
-----90--------------------
-----100--------------------
-----110--------------------
-----120--------------------
-----130--------------------
-----140--------------------
-----150--------------------
-----160--------------------
-----170--------------------
-----180--------------------
-----190--------------------
-----200--------------------
-----210--------------------
-----220--------------------
-----230--------------------
-----240--------------------
-----250--------------------
-----260--------------------
-----270--------------------
-----280--------------------
-----290--------------------
-----300--------------------
-----310--------------------
-----320--------------------
-----330--------------------
-----340--------------------
-----350--------------------
-----360--------------------
-----370--------------------
-----380--------------------
-----390--------------------
-----400--------------------
-----410--------------------
-----420--------------------
-----430--------------------
-----440--------------------
-----450--------------------
-----460--------------------
-----470--------------------
-----480--------------------
-----490--------------------
-----500--------------------
-----510--------------------
-----520--------------------
-----530--------------------
-----540--------------------
-----550--------------------
-----560--------------------
-----570--------------------
-----580--------------------
-----590--------------------
-----600--------------------
-----610--------------------
-----620--------------------
-----630--------------------
-----640--------------------
-----650--------------------
-----660--------------------
-----670--------------------
-----680--------------------
-----690--------------------
-----700--------------------
-----710--------------------
-----720--------------------
-----730--------------------
-----740--------------------
-----750--------------------
-----760--------------------
-----770--------------------
-----780--------------------
-----790--------------------
-----800--------------------
-----810--------------------
-----820--------------------
-----830--------------------
-----840--------------------
-----850--------------------
-----860--------------------
-----870--------------------
-----880--------------------
-----890--------------------
3,57,28Torbjørn Eiken, Asker Sk. Friidrett05.09.533Oslo/Bi03.08.82
-----900--------------------
-----910--------------------
-----920--------------------
-----930--------------------
-----940--------------------
-----950--------------------
-----960--------------------
-----970--------------------
-----980--------------------
-----990--------------------
-----1000--------------------
-----1010--------------------
-----1020--------------------
-----1030--------------------
-----1040--------------------
-----1050--------------------
-----1060--------------------
-----1070--------------------
-----1080--------------------
-----1090--------------------
-----1100--------------------
-----1110--------------------
-----1120--------------------
-----1130--------------------
-----1140--------------------
-----1150--------------------
-----1160--------------------
-----1170--------------------
-----1180--------------------
-----1190--------------------
-----1200--------------------
-----1210--------------------
-----1220--------------------
-----1230--------------------
-----1240--------------------
-----1250--------------------
-----1260--------------------
-----1270--------------------
-----1280--------------------
-----1290--------------------
3,59,93Halvard Eilertsen, Asker Sk. Friidrett06.06.563Oslo/Bi20.05.80
-----1300--------------------
-----1310--------------------
-----1320--------------------
-----1330--------------------
-----1340--------------------
-----1350--------------------
-----1360--------------------
-----1370--------------------
-----1380--------------------
-----1390--------------------
-----1400--------------------
-----1410--------------------
-----1420--------------------
-----1430--------------------
-----1440--------------------
-----1450--------------------
-----1460--------------------
4,12,88Harald Østberg Amundsen, Asker Sk. Friidrett18.09.981Asker, Holmenkolluttak07.05.19
-----1470--------------------
4,13,32Erland Kvisle, Asker Sk. Friidrett28.03.962Asker, Holmenkolluttak07.05.19
-----1480--------------------
-----1490--------------------
-----1500--------------------
-----1510--------------------
-----1520--------------------
-----1530--------------------
4,16,75Eirik Andreas Mortensbakke, Asker Sk. Friidrett11.01.993Asker, Holmenkolluttak07.05.19
-----1540--------------------
-----1550--------------------
-----1560--------------------
4,18,70Sjur Kvisle, Asker Sk. Friidrett28.08.994Asker, Holmenkolluttak07.05.19
-----1570--------------------
-----1580--------------------
-----1590--------------------
4,20,95Henrik Vik Tolo, Asker Sk. Friidrett23.04.995Asker, Holmenkolluttak07.05.19
-----1600--------------------
-----1610--------------------
-----1620--------------------
-----1630--------------------
4,23,08Jonas Torgersen, Asker Sk. Friidrett11.07.911Asker, Askerlekene 201111.06.11
-----1640--------------------
-----1650--------------------
-----1660--------------------
-----1670--------------------
-----1680--------------------
-----1690--------------------
-----1700--------------------
-----1710--------------------
4,28,40Henrik Aas, Asker Sk. Friidrett26.07.007Asker, Holmenkolluttak07.05.19
-----1720--------------------
4,28,99Jens Gunnar Torgersen, Asker Sk. Friidrett06.07.936 (G-18/19)Asker, Askerlekene 201111.06.11
-----1730--------------------
-----1740--------------------
-----1750--------------------
4,30,10Simen Løbak, Asker Sk. Friidrett31.05.008Asker, Holmenkolluttak07.05.19
-----1760--------------------
-----1770--------------------
-----1780--------------------
-----1790--------------------
4,32,32Eirik Asdøl, Asker Sk. Friidrett23.01.939Asker, Holmenkolluttak07.05.19
-----1800--------------------
-----1810--------------------
4,33,29Erling Tveter, Asker Sk. Friidrett25.04.973 (G-17)Asker, Askerlekene 201431.05.14
-----1820--------------------
-----1830--------------------
4,34,19Lars Kvalum, Asker Sk. Friidrett23.05.952 (G-16)Asker, Askerlekene 201111.06.11
-----1840--------------------
-----1850--------------------
4,35,37Emil Wiik, Asker Sk. Friidrett21.11.9710Asker, Holmenkolluttak07.05.19
-----1860--------------------
-----1870--------------------
-----1880--------------------
-----1890--------------------
-----1900--------------------
-----1910--------------------
-----1920--------------------
4,39,22Hallvard Moian Nydal, Asker Sk. Friidrett27.10.8812Asker, Holmenkolluttak07.05.19
-----1930--------------------
-----1940--------------------
-----1950--------------------
-----1960--------------------
-----1970--------------------
-----1980--------------------
-----1990--------------------
-----2000--------------------
-----2010--------------------
4,43,32Jens Christian Grymyr, Asker Sk. Friidrett12.01.9913Asker, Holmenkolluttak07.05.19
-----2020--------------------
-----2030--------------------
-----2040--------------------
-----2050--------------------
-----2060--------------------
-----2070--------------------
-----2080--------------------
-----2090--------------------
-----2100--------------------
-----2110--------------------
4,49,07Jonas Maukon Myhr, Asker Sk. Friidrett16.10.0315Asker, Holmenkolluttak07.05.19
-----2120--------------------
-----2130--------------------
-----2140--------------------
-----2150--------------------
4,51,43Ole Marius Forbord, Asker Sk. Friidrett03.10.954 (G-16)Asker, Askerlekene 201111.06.11
-----2160--------------------
-----2170--------------------
-----2180--------------------
-----2190--------------------
-----2200--------------------
-----2210--------------------
-----2220--------------------
-----2230--------------------
-----2240--------------------
4,57,15Lars Brauti, Asker Sk. Friidrett16.01.971Asker, Askerlekene 201506.06.15
-----2250--------------------
-----2260--------------------
-----2270--------------------
4,59,31Marcus Holter Larsen, Asker Sk. Friidrett15.03.0316Asker, Holmenkolluttak07.05.19
-----2280--------------------
5,00,04Martin Haugstad Moosmayer, Asker Sk. Friidrett11.12.996 (G-15)Asker, Askerlekene 201431.05.14
-----2290--------------------
5,01,05Erik Koppervik Christiansen, Asker Sk. Friidrett13.12.998 (G-15)Asker, Askerlekene 201431.05.14
-----2300--------------------
-----2310--------------------
-----2320--------------------
-----2330--------------------
-----2340--------------------
-----2350--------------------
-----2360--------------------
-----2370--------------------
-----2380--------------------
-----2390--------------------
-----2400--------------------
-----2410--------------------
5,10,33Ole Stornes Iversen, Asker Sk. Friidrett20.07.0117Asker, Holmenkolluttak07.05.19
-----2420--------------------
-----2430--------------------
-----2440--------------------
-----2450--------------------
-----2460--------------------
-----2470--------------------
-----2480--------------------
-----2490--------------------
-----2500--------------------
-----2510--------------------
-----2520--------------------
-----2530--------------------
-----2540--------------------
-----2550--------------------
5,29,26Anders Lervik, Asker Sk. Friidrett18.09.9918Asker, Holmenkolluttak07.05.19
-----2560--------------------
-----2570--------------------
5,33,88Emil Håkon Lier, Asker Sk. Friidrett14.11.9719Asker, Holmenkolluttak07.05.19
-----2580--------------------
-----2590--------------------
5,36,66Kristian Andreas Bøe Hilden, Asker Sk. Friidrett05.09.976 (G-15)Asker, Askerlekene 201202.06.12
-----2600--------------------
-----2610--------------------
-----2620--------------------
-----2630--------------------
-----2640--------------------
-----2650--------------------
-----2660--------------------
-----2670--------------------
-----2680--------------------
-----2690--------------------
-----2700--------------------
-----2710--------------------
-----2720--------------------
-----2730--------------------
-----2740--------------------
-----2750--------------------
-----2760--------------------
-----2770--------------------
-----2780--------------------
-----2790--------------------
-----2800--------------------
-----2810--------------------
-----2820--------------------
-----2830--------------------
-----2840--------------------
-----2850--------------------
-----2860--------------------
-----2870--------------------
-----2880--------------------
Utenlandske statsborgere for norske klubber
ResultatNavn, KlubbF.DatoPlasseringStedR.Dato
4,36,13Ryan Wah Jackson (CAN), Asker Sk. Friidrett11.03.9711Asker, Holmenkolluttak07.05.19
4,42,00Izzatulah Sultani (AFG), Asker Sk. Friidrett12.03.972 (G-18/19)Asker, Askerlekene 201506.06.15

Ikke godkjente resultater
Ekstra løp
ResultatNavn, KlubbF.DatoPlasseringStedR.Dato

Ikke medlem av NFIF
ResultatNavn, KlubbF.DatoPlasseringStedR.Dato

Utilstrekkelig tidtagning
ResultatNavn, KlubbF.DatoPlasseringStedR.Dato

ResultatNavn, KlubbF.DatoPlasseringStedR.Dato

ResultatNavn, KlubbF.DatoPlasseringStedR.Dato

ResultatNavn, KlubbF.DatoPlasseringStedR.Dato

1 mile

ResultatNavn, KlubbF.DatoPlasseringStedR.Dato
-----10--------------------
-----20--------------------
-----30--------------------
-----40--------------------
-----50--------------------
-----60--------------------
-----70--------------------
-----80--------------------
-----90--------------------
-----100--------------------
-----110--------------------
-----120--------------------
-----130--------------------
-----140--------------------
-----150--------------------
-----160--------------------
-----170--------------------
-----180--------------------
Ikke godkjent bane
ResultatNavn, KlubbF.DatoPlasseringStedR.Dato
Utenlandske statsborgere for norske klubber
ResultatNavn, KlubbF.DatoPlasseringStedR.Dato

Ikke godkjente resultater
Ikke medlem av NFIF
ResultatNavn, KlubbF.DatoPlasseringStedR.Dato

2000 meter

ResultatNavn, KlubbF.DatoPlasseringStedR.Dato
-----10--------------------
-----20--------------------
-----30--------------------
-----40--------------------
-----50--------------------
-----60--------------------
-----70--------------------
-----80--------------------
-----90--------------------
-----100--------------------
-----110--------------------
-----120--------------------
-----130--------------------
-----140--------------------
-----150--------------------
-----160--------------------
-----170--------------------
-----180--------------------
-----190--------------------
-----200--------------------
-----210--------------------
-----220--------------------
6,20,12Erling Tveter, Asker Sk. Friidrett25.04.9713 (G-15)Ravnanger, UM 201202.09.12
-----230--------------------
-----240--------------------
-----250--------------------
-----260--------------------
-----270--------------------
-----280--------------------
-----290--------------------
-----300--------------------
-----310--------------------
-----320--------------------
-----330--------------------
-----340--------------------
-----350--------------------
-----360--------------------
-----370--------------------
6,45,51Martin Haugstad Moosmayer, Asker Sk. Friidrett11.12.9917 (G-15)Nadderud, DNB Tyrvinglekene13.06.14
6,45,66Marcus Holter Larsen, Asker Sk. Friidrett15.03.031 (G-15)Asker, Test 3000m05.06.18
6,48,37Erik Koppervik Christiansen, Asker Sk. Friidrett13.12.9920 (G-15)Nadderud, DNB Tyrvinglekene13.06.14
-----380--------------------
-----390--------------------
-----400--------------------
6,58,22Mikael Kristoffer Galteland Birkelund, Asker Sk. Friidrett07.09.041 (G-15)Asker, Kretsstevne 2 - løp26.08.19
-----410--------------------
-----420--------------------
-----430--------------------
-----440--------------------
-----450--------------------
8,43,03Jørgen Kveen, Asker Sk. Friidrett26.04.035 (G-15)Asker, Test 3000m05.06.18
Utenlandske statsborgere for norske klubber
ResultatNavn, KlubbF.DatoPlasseringStedR.Dato

Ikke godkjente resultater
Ikke medlem av NFIF
ResultatNavn, KlubbF.DatoPlasseringStedR.Dato

3000 meter

ResultatNavn, KlubbF.DatoPlasseringStedR.Dato
-----10--------------------
-----20--------------------
-----30--------------------
-----40--------------------
-----50--------------------
-----60--------------------
-----70--------------------
-----80--------------------
-----90--------------------
-----100--------------------
-----110--------------------
-----120--------------------
-----130--------------------
-----140--------------------
-----150--------------------
-----160--------------------
-----170--------------------
-----180--------------------
-----190--------------------
-----200--------------------
-----210--------------------
-----220--------------------
-----230--------------------
-----240--------------------
-----250--------------------
-----260--------------------
-----270--------------------
-----280--------------------
-----290--------------------
-----300--------------------
-----310--------------------
-----320--------------------
-----330--------------------
-----340--------------------
-----350--------------------
-----360--------------------
-----370--------------------
-----380--------------------
-----390--------------------
-----400--------------------
-----410--------------------
-----420--------------------
-----430--------------------
-----440--------------------
-----450--------------------
-----460--------------------
-----470--------------------
-----480--------------------
-----490--------------------
-----500--------------------
-----510--------------------
-----520--------------------
-----530--------------------
-----540--------------------
-----550--------------------
-----560--------------------
-----570--------------------
-----580--------------------
-----590--------------------
-----600--------------------
-----610--------------------
-----620--------------------
-----630--------------------
-----640--------------------
-----650--------------------
-----660--------------------
-----670--------------------
-----680--------------------
-----690--------------------
-----700--------------------
-----710--------------------
-----720--------------------
-----730--------------------
-----740--------------------
-----750--------------------
-----760--------------------
-----770--------------------
-----780--------------------
-----790--------------------
-----800--------------------
-----810--------------------
-----820--------------------
-----830--------------------
-----840--------------------
-----850--------------------
-----860--------------------
-----870--------------------
8,36,51John Deighan Hanssen, Asker Sk. Friidrett22.05.866-h2Oslo/Bi, Oslos Sommerstevne 201719.07.17
-----880--------------------
-----890--------------------
-----900--------------------
-----910--------------------
-----920--------------------
-----930--------------------
-----940--------------------
-----950--------------------
-----960--------------------
-----970--------------------
-----980--------------------
-----990--------------------
-----1000--------------------
-----1010--------------------
-----1020--------------------
-----1030--------------------
-----1040--------------------
-----1050--------------------
-----1060--------------------
-----1070--------------------
-----1080--------------------
-----1090--------------------
-----1100--------------------
-----1110--------------------
-----1120--------------------
-----1130--------------------
-----1140--------------------
-----1150--------------------
-----1160--------------------
-----1170--------------------
-----1180--------------------
-----1190--------------------
-----1200--------------------
-----1210--------------------
-----1220--------------------
-----1230--------------------
-----1240--------------------
-----1250--------------------
-----1260--------------------
-----1270--------------------
-----1280--------------------
9,10,22Henrik Vik Tolo, Asker Sk. Friidrett23.04.9915-h2Nadderud, Oslo Sportslager Tyrvinglekene14.06.19
-----1290--------------------
-----1300--------------------
-----1310--------------------
-----1320--------------------
-----1330--------------------
-----1340--------------------
-----1350--------------------
-----1360--------------------
-----1370--------------------
-----1380--------------------
-----1390--------------------
-----1400--------------------
-----1410--------------------
-----1420--------------------
-----1430--------------------
9,23,69Sander Arntzen, Asker Sk. Friidrett28.01.001 (G-18/19)Asker, Test 3000m05.06.18
-----1440--------------------
9,24,82Henrik Aas, Asker Sk. Friidrett26.07.002 (G-18/19)Asker, Test 3000m05.06.18
-----1450--------------------
-----1460--------------------
-----1470--------------------
-----1480--------------------
-----1490--------------------
-----1500--------------------
-----1510--------------------
-----1520--------------------
-----1530--------------------
-----1540--------------------
-----1550--------------------
-----1560--------------------
-----1570--------------------
-----1580--------------------
-----1590--------------------
-----1600--------------------
-----1610--------------------
9,37,81Simen Løbak, Asker Sk. Friidrett31.05.004 (G-18/19)Asker, Test 3000m05.06.18
-----1620--------------------
9,39,2Vegard Gulbrandsen, Asker Sk. Friidrett06.04.983Målselv, Målselvkarusellen 201824.05.18
-----1630--------------------
-----1640--------------------
-----1650--------------------
-----1660--------------------
9,42,75Erling Tveter, Asker Sk. Friidrett25.04.976 (G-17)Nadderud, DNB Tyrvinglekene13.06.14
-----1670--------------------
-----1680--------------------
9,43,97Walter Fische Pettersen, Asker Sk. Friidrett29.04.001 (G-16)Asker, Kretsstevne 228.08.17
-----1690--------------------
9,45,34Emil Wiik, Asker Sk. Friidrett21.11.972Asker, Test 3000m05.06.18
-----1700--------------------
-----1710--------------------
9,46,37Martin Haarstad, Asker Sk. Friidrett24.11.995 (G-18/19)Asker, Test 3000m05.06.18
-----1720--------------------
-----1730--------------------
9,48,52Lars Kvalum, Asker Sk. Friidrett23.05.9518Oslo/Bi, Nasjonalt Stevne26.07.11
-----1740--------------------
9,49,29Jonas Torgersen, Asker Sk. Friidrett11.07.913Asker, Test 3000m05.06.18
-----1750--------------------
-----1760--------------------
-----1770--------------------
-----1780--------------------
-----1790--------------------
-----1800--------------------
9,55,33Jens Christian Grymyr, Asker Sk. Friidrett12.01.996 (G-18/19)Asker, Test 3000m05.06.18
-----1810--------------------
-----1820--------------------
-----1830--------------------
9,57,57Erling Sommerfeldt, Asker Sk. Friidrett21.11.794Asker, Test 3000m05.06.18
-----1840--------------------
-----1850--------------------
-----1860--------------------
-----1870--------------------
10,01,42Eirik Asdøl, Asker Sk. Friidrett23.01.935Asker, Test 3000m05.06.18
-----1880--------------------
-----1890--------------------
-----1900--------------------
-----1910--------------------
-----1920--------------------
-----1930--------------------
-----1940--------------------
-----1950--------------------
-----1960--------------------
10,09,98Felix Finsrud, Asker Sk. Friidrett23.01.021 (G-16)Asker, Test 3000m05.06.18
-----1970--------------------
-----1980--------------------
-----1990--------------------
-----2000--------------------
-----2010--------------------
-----2020--------------------
-----2030--------------------
-----2040--------------------
-----2050--------------------
-----2060--------------------
10,21,00Trygve Maukon Myhr, Asker Sk. Friidrett11.08.007 (G-18/19)Asker, Test 3000m05.06.18
-----2070--------------------
10,22,46Lars Brauti, Asker Sk. Friidrett16.01.9720-h2Nadderud, Oslo Sportslager Tyrvinglekene12.06.15
-----2080--------------------
-----2090--------------------
-----2100--------------------
10,27,27Simen Aure Skogedal, Asker Sk. Friidrett13.01.031 (G-16)Asker, Kretsstevne 2 - løp26.08.19
-----2110--------------------
-----2120--------------------
-----2130--------------------
-----2140--------------------
-----2150--------------------
-----2160--------------------
-----2170--------------------
-----2180--------------------
-----2190--------------------
-----2200--------------------
-----2210--------------------
-----2220--------------------
-----2230--------------------
-----2240--------------------
-----2250--------------------
-----2260--------------------
-----2270--------------------
10,52,90Bjørn Vegard Martini, Asker Sk. Friidrett10.05.697Asker, Test 3000m05.06.18
-----2280--------------------
10,55,41Sondre Ytterbø, Asker Sk. Friidrett21.08.022 (G-15)Asker, Kretsstevne 4 - løp11.09.17
-----2290--------------------
10,57,06Per Clemet Wisløff, Asker Sk. Friidrett28.05.002 (G-18)Asker, Kretsstevne 303.09.18
-----2300--------------------
-----2310--------------------
-----2320--------------------
-----2330--------------------
-----2340--------------------
11,04,12Anders Marcussen, Asker Sk. Friidrett16.01.961 (G-16)Asker, Kretsstevne Løp23.05.12
-----2350--------------------
-----2360--------------------
-----2370--------------------
-----2380--------------------
-----2390--------------------
-----2400--------------------
11,17,17Emil Håkon Lier, Asker Sk. Friidrett14.11.978Asker, Test 3000m05.06.18
-----2410--------------------
11,19,87Johan Westly, Asker Sk. Friidrett17.03.991 (G-17)Asker, Kretsstevne 230.05.16
-----2420--------------------
-----2430--------------------
-----2440--------------------
-----2450--------------------
-----2460--------------------
-----2470--------------------
-----2480--------------------
-----2490--------------------
-----2500--------------------
11,38,44Theodor Fredrik Waalen, Asker Sk. Friidrett17.04.023 (G-16)Asker, Test 3000m05.06.18
-----2510--------------------
11,41,10Frikk Alvaro Embergsrud, Asker Sk. Friidrett11.01.024 (G-16)Asker, Test 3000m05.06.18
-----2520--------------------
-----2530--------------------
-----2540--------------------
-----2550--------------------
-----2560--------------------
-----2570--------------------
-----2580--------------------
-----2590--------------------
-----2600--------------------
-----2610--------------------
-----2620--------------------
12,19,77Brage Storebakken, Asker Sk. Friidrett07.08.953 (G-17)Asker, Kretsstevne Løp23.05.12
-----2630--------------------
-----2640--------------------
-----2650--------------------
-----2660--------------------
-----2670--------------------
-----2680--------------------
-----2690--------------------
-----2700--------------------
-----2710--------------------
-----2720--------------------
-----2730--------------------
-----2740--------------------
-----2750--------------------
-----2760--------------------
-----2770--------------------
-----2780--------------------
-----2790--------------------
16,05,18Brede Tolo Haugland, Asker Sk. Friidrett12.10.023 (G-16)Asker, Kretsstevne 303.09.18
-----2800--------------------
-----2810--------------------
Utenlandske statsborgere for norske klubber
ResultatNavn, KlubbF.DatoPlasseringStedR.Dato

Ikke godkjente resultater
Ikke medlem av NFIF
ResultatNavn, KlubbF.DatoPlasseringStedR.Dato

Utilstrekkelig tidtagning
ResultatNavn, KlubbF.DatoPlasseringStedR.Dato

ResultatNavn, KlubbF.DatoPlasseringStedR.Dato

ResultatNavn, KlubbF.DatoPlasseringStedR.Dato

ResultatNavn, KlubbF.DatoPlasseringStedR.Dato

ResultatNavn, KlubbF.DatoPlasseringStedR.Dato

5000 meter

ResultatNavn, KlubbF.DatoPlasseringStedR.Dato
-----10--------------------
-----20--------------------
-----30--------------------
-----40--------------------
-----50--------------------
-----60--------------------
-----70--------------------
-----80--------------------
-----90--------------------
-----100--------------------
-----110--------------------
-----120--------------------
-----130--------------------
-----140--------------------
-----150--------------------
-----160--------------------
-----170--------------------
-----180--------------------
-----190--------------------
-----200--------------------
-----210--------------------
-----220--------------------
-----230--------------------
-----240--------------------
-----250--------------------
-----260--------------------
-----270--------------------
-----280--------------------
-----290--------------------
-----300--------------------
-----310--------------------
-----320--------------------
-----330--------------------
-----340--------------------
-----350--------------------
-----360--------------------
-----370--------------------
-----380--------------------
-----390--------------------
14,39,9Bjørn Holst, Asker Sk. Friidrett24.01.5814Oslo/Bi07.06.77
-----400--------------------
-----410--------------------
-----420--------------------
-----430--------------------
-----440--------------------
-----450--------------------
-----460--------------------
-----470--------------------
-----480--------------------
-----490--------------------
-----500--------------------
-----510--------------------
-----520--------------------
-----530--------------------
-----540--------------------
-----550--------------------
-----560--------------------
-----570--------------------
-----580--------------------
-----590--------------------
-----600--------------------
-----610--------------------
-----620--------------------
-----630--------------------
-----640--------------------
-----650--------------------
-----660--------------------
-----670--------------------
-----680--------------------
-----690--------------------
-----700--------------------
-----710--------------------
14,57,4Halvard Eilertsen, Asker Sk. Friidrett06.06.564Oslo/Bi06.09.79
-----720--------------------
-----730--------------------
-----740--------------------
-----750--------------------
-----760--------------------
-----770--------------------
-----780--------------------
-----790--------------------
-----800--------------------
-----810--------------------
15,02,08John Deighan Hanssen, Asker Sk. Friidrett22.05.861Oslo/Bi, Politimesterskapet i friidrett 201726.08.17
-----820--------------------
-----830--------------------
-----840--------------------
-----850--------------------
-----860--------------------
-----870--------------------
-----880--------------------
-----890--------------------
-----900--------------------
-----910--------------------
-----920--------------------
-----930--------------------
-----940--------------------
-----950--------------------
-----960--------------------
-----970--------------------
-----980--------------------
-----990--------------------
-----1000--------------------
-----1010--------------------
-----1020--------------------
-----1030--------------------
-----1040--------------------
-----1050--------------------
-----1060--------------------
-----1070--------------------
-----1080--------------------
-----1090--------------------
-----1100--------------------
-----1110--------------------
-----1120--------------------
-----1130--------------------
-----1140--------------------
-----1150--------------------
16,19,58Henrik Vik Tolo, Asker Sk. Friidrett23.04.9923-h2Oslo/Bi, Boysen Memorial 201905.07.19
-----1160--------------------
-----1170--------------------
-----1180--------------------
-----1190--------------------
-----1200--------------------
-----1210--------------------
-----1220--------------------
-----1230--------------------
-----1240--------------------
-----1250--------------------
-----1260--------------------
-----1270--------------------
-----1280--------------------
-----1290--------------------
-----1300--------------------
-----1310--------------------
17,23,01Lars Kvalum, Asker Sk. Friidrett23.05.951Asker, Kretsstevne25.05.11
-----1320--------------------
-----1330--------------------
-----1340--------------------
-----1350--------------------
-----1360--------------------
-----1370--------------------
-----1380--------------------
-----1390--------------------
-----1400--------------------
-----1410--------------------
-----1420--------------------
-----1430--------------------
-----1440--------------------
-----1450--------------------
-----1460--------------------
-----1470--------------------
-----1480--------------------
-----1490--------------------
-----1500--------------------
-----1510--------------------
-----1520--------------------
-----1530--------------------
-----1540--------------------
-----1550--------------------
-----1560--------------------
-----1570--------------------
-----1580--------------------
-----1590--------------------
-----1600--------------------
-----1610--------------------
-----1620--------------------
-----1630--------------------
-----1640--------------------
-----1650--------------------
-----1660--------------------
-----1670--------------------
-----1680--------------------
-----1690--------------------
-----1700--------------------
-----1710--------------------
Utenlandske statsborgere for norske klubber
ResultatNavn, KlubbF.DatoPlasseringStedR.Dato

Ikke godkjente resultater
Ikke medlem av NFIF
ResultatNavn, KlubbF.DatoPlasseringStedR.Dato

Utilstrekkelig tidtagning
ResultatNavn, KlubbF.DatoPlasseringStedR.Dato

ResultatNavn, KlubbF.DatoPlasseringStedR.Dato

ResultatNavn, KlubbF.DatoPlasseringStedR.Dato

ResultatNavn, KlubbF.DatoPlasseringStedR.Dato

ResultatNavn, KlubbF.DatoPlasseringStedR.Dato

10000 meter

ResultatNavn, KlubbF.DatoPlasseringStedR.Dato
-----10--------------------
-----20--------------------
-----30--------------------
-----40--------------------
-----50--------------------
-----60--------------------
-----70--------------------
-----80--------------------
-----90--------------------
-----100--------------------
31,55,44John Deighan Hanssen, Asker Sk. Friidrett22.05.8616-h1Oslo/Bi, Oslo Sommerstevne 201917.07.19
-----110--------------------
-----120--------------------
-----130--------------------
-----140--------------------
-----150--------------------
-----160--------------------
-----170--------------------
-----180--------------------
-----190--------------------
-----200--------------------
-----210--------------------
34,07,75Henrik Vik Tolo, Asker Sk. Friidrett23.04.9923-h1Oslo/Bi, Oslo Sommerstevne 201917.07.19
-----220--------------------
-----230--------------------
-----240--------------------
-----250--------------------
-----260--------------------
-----270--------------------
-----280--------------------
-----290--------------------
36,32,88Morten Grønneberg, Asker Sk. Friidrett27.11.7313-h1Lillehammer, Fjellpulkenmila07.10.18
-----300--------------------
-----310--------------------
-----320--------------------
-----330--------------------
-----340--------------------
-----350--------------------
-----360--------------------
-----370--------------------
-----380--------------------
-----390--------------------
40,57,20André Borka, Asker Sk. Friidrett15.06.692 (MV50)Geithus, NM Veteraner 201923.06.19
-----400--------------------
-----410--------------------
-----420--------------------
-----430--------------------
-----440--------------------
-----450--------------------
Utenlandske statsborgere for norske klubber
ResultatNavn, KlubbF.DatoPlasseringStedR.Dato

Ikke godkjente resultater
Ikke medlem av NFIF
ResultatNavn, KlubbF.DatoPlasseringStedR.Dato

2 mile

ResultatNavn, KlubbF.DatoPlasseringStedR.Dato

100 km

ResultatNavn, KlubbF.DatoPlasseringStedR.Dato
-----10--------------------
Utenlandske statsborgere for norske klubber
ResultatNavn, KlubbF.DatoPlasseringStedR.Dato

Ikke godkjente resultater
Ikke medlem av NFIF
ResultatNavn, KlubbF.DatoPlasseringStedR.Dato

110 meter hekk (106,7cm)

ResultatNavn, KlubbF.DatoPlasseringStedR.Dato
-----10--------------------
-----20--------------------
-----30--------------------
-----40--------------------
-----50--------------------
Utenlandske statsborgere for norske klubber
ResultatNavn, KlubbF.DatoPlasseringStedR.Dato

Manuelt Supplement
ResultatNavn, KlubbF.DatoPlasseringStedR.Dato

Ikke godkjente resultater
For mye vind
ResultatNavn, KlubbF.DatoPlasseringStedR.Dato

Manglende informasjon om vind
ResultatNavn, KlubbF.DatoPlasseringStedR.Dato

200 meter hekk (76,2cm)

ResultatNavn, KlubbF.DatoPlasseringStedR.Dato
-----10--------------------
-----20--------------------
-----30--------------------
-----40--------------------
-----50--------------------
-----60--------------------
-----70--------------------
-----80--------------------
-----90--------------------
-----100--------------------
-----110--------------------
-----120--------------------
Utenlandske statsborgere for norske klubber
ResultatNavn, KlubbF.DatoPlasseringStedR.Dato

Manuelt Supplement
ResultatNavn, KlubbF.DatoPlasseringStedR.Dato
-----10--------------------

Ikke godkjente resultater
For mye vind
ResultatNavn, KlubbF.DatoPlasseringStedR.Dato

Manglende informasjon om vind
ResultatNavn, KlubbF.DatoPlasseringStedR.Dato

300 meter hekk (91,4cm)

ResultatNavn, KlubbF.DatoPlasseringStedR.Dato
-----10--------------------
-----20--------------------

Ikke godkjente resultater
Ekstra løp
ResultatNavn, KlubbF.DatoPlasseringStedR.Dato

400 meter hekk (91,4cm)

ResultatNavn, KlubbF.DatoPlasseringStedR.Dato
-----10--------------------
-----20--------------------
-----30--------------------
-----40--------------------
-----50--------------------
-----60--------------------
-----70--------------------
-----80--------------------
-----90--------------------
-----100--------------------
-----110--------------------
Utenlandske statsborgere for norske klubber
ResultatNavn, KlubbF.DatoPlasseringStedR.Dato

Manuelt Supplement
ResultatNavn, KlubbF.DatoPlasseringStedR.Dato

2000 meter hinder (91,4cm)

ResultatNavn, KlubbF.DatoPlasseringStedR.Dato
-----10--------------------
-----20--------------------
-----30--------------------
-----40--------------------
-----50--------------------
-----60--------------------
-----70--------------------
-----80--------------------
-----90--------------------
-----100--------------------
Utenlandske statsborgere for norske klubber
ResultatNavn, KlubbF.DatoPlasseringStedR.Dato

3000 meter hinder (91,4cm)

ResultatNavn, KlubbF.DatoPlasseringStedR.Dato
-----10--------------------
-----20--------------------
-----30--------------------
-----40--------------------
-----50--------------------
-----60--------------------
-----70--------------------
Utenlandske statsborgere for norske klubber
ResultatNavn, KlubbF.DatoPlasseringStedR.Dato

Ikke godkjente resultater
Ikke godkjent
ResultatNavn, KlubbF.DatoPlasseringStedR.Dato

Ikke medlem av NFIF
ResultatNavn, KlubbF.DatoPlasseringStedR.Dato

Kappgang 1000 meter

ResultatNavn, KlubbF.DatoPlasseringStedR.Dato
-----10--------------------
-----20--------------------
-----30--------------------

Ikke godkjente resultater
Ikke approbert øvelse
ResultatNavn, KlubbF.DatoPlasseringStedR.Dato

Kappgang 3000 meter

ResultatNavn, KlubbF.DatoPlasseringStedR.Dato
-----10--------------------
-----20--------------------
-----30--------------------
-----40--------------------

Ikke godkjente resultater
Ikke medlem av NFIF
ResultatNavn, KlubbF.DatoPlasseringStedR.Dato

Utilstrekkelig med dommere
ResultatNavn, KlubbF.DatoPlasseringStedR.Dato

Kappgang 5000 meter

ResultatNavn, KlubbF.DatoPlasseringStedR.Dato
-----10--------------------
-----20--------------------
-----30--------------------

Ikke godkjente resultater
Ikke medlem av NFIF
ResultatNavn, KlubbF.DatoPlasseringStedR.Dato

Kappgang 10000 meter

ResultatNavn, KlubbF.DatoPlasseringStedR.Dato
-----10--------------------
-----20--------------------

Kappgang 10 km

ResultatNavn, KlubbF.DatoPlasseringStedR.Dato
-----10--------------------

Kappgang 20 km

ResultatNavn, KlubbF.DatoPlasseringStedR.Dato
-----10--------------------

Kappgang 50 km

ResultatNavn, KlubbF.DatoPlasseringStedR.Dato

Høyde

ResultatNavn, KlubbF.DatoPlasseringStedR.Dato
-----10--------------------
-----20--------------------
-----30--------------------
-----40--------------------
-----50--------------------
-----60--------------------
-----70--------------------
-----80--------------------
-----90--------------------
-----100--------------------
-----110--------------------
1,77Espen Berntzen Høgstedt, Asker Sk. Friidrett03.04.971 (G-17)Asker, Askerlekene 201431.05.14
-----120--------------------
-----130--------------------
-----140--------------------
-----150--------------------
-----160--------------------
1,72Sigurd Tandberg Ryan, Asker Sk. Friidrett01.09.951 (G-16)Nadderud, KM Akershus 10-19 år23.09.11
-----170--------------------
-----180--------------------
-----190--------------------
-----200--------------------
-----210--------------------
-----220--------------------
-----230--------------------
-----240--------------------
-----250--------------------
-----260--------------------
-----270--------------------
-----280--------------------
-----290--------------------
1,62Jan Berntzen, Asker Sk. Friidrett05.10.632 (MV50)Moss, Nordic Veteran Championship 201329.06.13
1,62Tobias Dale, Asker Sk. Friidrett04.01.972 (G-17)Asker, Askerlekene 201431.05.14
-----300--------------------
-----310--------------------
-----320--------------------
-----330--------------------
-----340--------------------
-----350--------------------
-----360--------------------
-----370--------------------
-----380--------------------
-----390--------------------
-----400--------------------
-----410--------------------
-----420--------------------
-----430--------------------
-----440--------------------
-----450--------------------
1,55Magnus Kvale Thom, Asker Sk. Friidrett21.03.973 (G-18/19)Asker, Askerlekene 201506.06.15
-----460--------------------
-----470--------------------
-----480--------------------
-----490--------------------
-----500--------------------
-----510--------------------
-----520--------------------
-----530--------------------
-----540--------------------
-----550--------------------
-----560--------------------
-----570--------------------
-----580--------------------
-----590--------------------
-----600--------------------
-----610--------------------
-----620--------------------
-----630--------------------
-----640--------------------
-----650--------------------
-----660--------------------
-----670--------------------
-----680--------------------
-----690--------------------
-----700--------------------
-----710--------------------
-----720--------------------
-----730--------------------
-----740--------------------
-----750--------------------
-----760--------------------
-----770--------------------
-----780--------------------
-----790--------------------
-----800--------------------
-----810--------------------
-----820--------------------
-----830--------------------
-----840--------------------
-----850--------------------
-----860--------------------
-----870--------------------
-----880--------------------
-----890--------------------
-----900--------------------
-----910--------------------
-----920--------------------
-----930--------------------
-----940--------------------
-----950--------------------
-----960--------------------
-----970--------------------
-----980--------------------
-----990--------------------
-----1000--------------------
-----1010--------------------
-----1020--------------------
-----1030--------------------
-----1040--------------------
-----1050--------------------
Utenlandske statsborgere for norske klubber
ResultatNavn, KlubbF.DatoPlasseringStedR.Dato

Ikke godkjente resultater
Ikke medlem av NFIF
ResultatNavn, KlubbF.DatoPlasseringStedR.Dato

Stav

ResultatNavn, KlubbF.DatoPlasseringStedR.Dato
-----10--------------------
-----20--------------------
-----30--------------------
-----40--------------------
-----50--------------------
-----60--------------------
-----70--------------------
-----80--------------------
-----90--------------------
-----100--------------------
-----110--------------------
-----120--------------------
-----130--------------------
4,20Marius Sagen, Asker Sk. Friidrett18.02.73MSan Diego, USA21.05.97
-----140--------------------
-----150--------------------
-----160--------------------
4,10Jim Roger Torgersen, Asker Sk. Friidrett08.06.682Oslo/Bi13.08.91
-----170--------------------
-----180--------------------
-----190--------------------
-----200--------------------
4,00Espen Jahren, Asker Sk. Friidrett25.04.665Ski11.09.94
-----210--------------------
-----220--------------------
-----230--------------------
-----240--------------------
-----250--------------------
-----260--------------------
-----270--------------------
-----280--------------------
-----290--------------------
-----300--------------------
-----310--------------------
-----320--------------------
-----330--------------------
-----340--------------------
-----350--------------------
-----360--------------------
-----370--------------------
-----380--------------------
-----390--------------------
-----400--------------------
-----410--------------------
-----420--------------------
-----430--------------------
-----440--------------------
-----450--------------------
-----460--------------------
-----470--------------------
-----480--------------------
-----490--------------------
-----500--------------------
-----510--------------------
-----520--------------------
-----530--------------------
-----540--------------------
-----550--------------------
-----560--------------------
-----570--------------------
-----580--------------------
2,60Espen Berntzen Høgstedt, Asker Sk. Friidrett03.04.971 (G-17)Ski, Kretsstevne21.05.14
-----590--------------------
-----600--------------------
-----610--------------------
-----620--------------------
-----630--------------------
-----640--------------------
-----650--------------------
-----660--------------------
-----670--------------------
1,80Magnus Kvale Thom, Asker Sk. Friidrett21.03.972 (G-15)Asker, Kretsstevne hopp12.09.12
-----680--------------------
-----690--------------------
Utenlandske statsborgere for norske klubber
ResultatNavn, KlubbF.DatoPlasseringStedR.Dato

Ikke godkjente resultater
ResultatNavn, KlubbF.DatoPlasseringStedR.Dato

ResultatNavn, KlubbF.DatoPlasseringStedR.Dato

ResultatNavn, KlubbF.DatoPlasseringStedR.Dato

ResultatNavn, KlubbF.DatoPlasseringStedR.Dato

ResultatNavn, KlubbF.DatoPlasseringStedR.Dato

ResultatNavn, KlubbF.DatoPlasseringStedR.Dato

Lengde

ResultatNavn, KlubbF.DatoPlasseringStedR.Dato
-----10--------------------
-----20--------------------
-----30--------------------
-----40--------------------
-----50--------------------
-----60--------------------
-----70--------------------
-----80--------------------
-----90--------------------
-----100--------------------
-----110--------------------
-----120--------------------
-----130--------------------
-----140--------------------
-----150--------------------
-----160--------------------
-----170--------------------
6,04(+1,7)Ole Marius Strøhm, Asker Sk. Friidrett18.01.99(-)Asker, Askerlekene 201507.06.15
-----180--------------------
-----190--------------------
-----200--------------------
-----210--------------------
-----220--------------------
-----230--------------------
-----240--------------------
-----250--------------------
-----260--------------------
-----270--------------------
-----280--------------------
-----290--------------------
-----300--------------------
-----310--------------------
-----320--------------------
-----330--------------------
-----340--------------------
-----350--------------------
-----360--------------------
-----370--------------------
-----380--------------------
5,58(-1,6)Tobias Dale, Asker Sk. Friidrett04.01.971 (G-18/19)Asker, Askerlekene 201507.06.15
-----390--------------------
-----400--------------------
-----410--------------------
-----420--------------------
5,51(-1,4)Magnus Kvale Thom, Asker Sk. Friidrett21.03.972 (G-18/19)Asker, Askerlekene 201507.06.15
-----430--------------------
-----440--------------------
-----450--------------------
-----460--------------------
-----470--------------------
-----480--------------------
-----490--------------------
-----500--------------------
-----510--------------------
-----520--------------------
-----530--------------------
5,35(+0,0)Erling Tveter, Asker Sk. Friidrett25.04.971 (G-17)Asker, Askerlekene 201401.06.14
-----540--------------------
-----550--------------------
-----560--------------------
-----570--------------------
5,30(+0,7)Morten Fronth, Asker Sk. Friidrett01.01.958 (G-16)Nadderud, DnB NOR Tyrvinglekene17.06.11
-----580--------------------
-----590--------------------
-----600--------------------
-----610--------------------
-----620--------------------
-----630--------------------
-----640--------------------
-----650--------------------
-----660--------------------
-----670--------------------
-----680--------------------
-----690--------------------
-----700--------------------
-----710--------------------
-----720--------------------
-----730--------------------
-----740--------------------
5,08(-1,1)Martin Granøien Monsen, Asker Sk. Friidrett05.01.971 (G-16)Asker, Askerlekene 201302.06.13
-----750--------------------
-----760--------------------
-----770--------------------
-----780--------------------
-----790--------------------
-----800--------------------
-----810--------------------
-----820--------------------
-----830--------------------
-----840--------------------
-----850--------------------
-----860--------------------
-----870--------------------
4,88(+0,9)Kristian Andreas Bøe Hilden, Asker Sk. Friidrett05.09.972 (G-16)Asker, Askerlekene 201302.06.13
-----880--------------------
-----890--------------------
4,86(+1,0)Theodor Kleven Svendsen, Asker Sk. Friidrett29.05.017 (G-15)Oslo/Bi, Mizuno Tjalvelekene13.08.16
-----900--------------------
-----910--------------------
-----920--------------------
-----930--------------------
-----940--------------------
-----950--------------------
-----960--------------------
-----970--------------------
-----980--------------------
-----990--------------------
-----1000--------------------
-----1010--------------------
-----1020--------------------
-----1030--------------------
-----1040--------------------
-----1050--------------------
-----1060--------------------
-----1070--------------------
-----1080--------------------
-----1090--------------------
-----1100--------------------
-----1110--------------------
-----1120--------------------
-----1130--------------------
-----1140--------------------
-----1150--------------------
-----1160--------------------
-----1170--------------------
-----1180--------------------
-----1190--------------------
-----1200--------------------
-----1210--------------------
-----1220--------------------
-----1230--------------------
-----1240--------------------
-----1250--------------------
-----1260--------------------
-----1270--------------------
-----1280--------------------
-----1290--------------------
-----1300--------------------
-----1310--------------------
-----1320--------------------
-----1330--------------------
-----1340--------------------
3,97(-1,4)Espen Berntzen Høgstedt, Asker Sk. Friidrett03.04.977 (G-15)Asker, Askerlekene 201203.06.12
-----1350--------------------
-----1360--------------------
-----1370--------------------
-----1380--------------------
-----1390--------------------
-----1400--------------------
-----1410--------------------
-----1420--------------------
-----1430--------------------
-----1440--------------------
-----1450--------------------
-----1460--------------------
-----1470--------------------
-----1480--------------------
-----1490--------------------
-----1500--------------------
-----1510--------------------
-----1520--------------------
-----1530--------------------
Utenlandske statsborgere for norske klubber
ResultatNavn, KlubbF.DatoPlasseringStedR.Dato

Ikke godkjente resultater
For mye vind
ResultatNavn, KlubbF.DatoPlasseringStedR.Dato
6,06(+4,1)Ole Marius Strøhm, Asker Sk. Friidrett18.01.991 (G-16)Asker, Askerlekene 201507.06.15

Manglende informasjon om vind
ResultatNavn, KlubbF.DatoPlasseringStedR.Dato

Ikke medlem av NFIF
ResultatNavn, KlubbF.DatoPlasseringStedR.Dato

Tresteg

ResultatNavn, KlubbF.DatoPlasseringStedR.Dato
-----10--------------------
-----20--------------------
-----30--------------------
-----40--------------------
-----50--------------------
-----60--------------------
-----70--------------------
-----80--------------------
-----90--------------------
-----100--------------------
-----110--------------------
-----120--------------------
-----130--------------------
-----140--------------------
-----150--------------------
-----160--------------------
-----170--------------------
-----180--------------------
-----190--------------------
-----200--------------------
11,69(+1,6)Stein Tore Klungland, Asker Sk. Friidrett02.08.581 (MV50)Stavanger, NM Veteran16.09.12
-----210--------------------
-----220--------------------
-----230--------------------
11,36(-0,4)Jan Berntzen, Asker Sk. Friidrett05.10.634 (MV50)Moss, Nordic Veteran Championship 201330.06.13
-----240--------------------
-----250--------------------
-----260--------------------
-----270--------------------
-----280--------------------
-----290--------------------
-----300--------------------
-----310--------------------
-----320--------------------
-----330--------------------
10,77(+1,5)Theodor Kleven Svendsen, Asker Sk. Friidrett29.05.017 (G-15)Nadderud, Oslo Sportslager Tyrvinglekene11.06.16
-----340--------------------
-----350--------------------
-----360--------------------
10,53(-0,7)Kenneth Vik Gulbrandsen, Asker Sk. Friidrett25.05.972 (G-16)Nadderud, Kretsstevne19.09.13
-----370--------------------
10,39(-1,5)Erling Tveter, Asker Sk. Friidrett25.04.976 (G-15)Nadderud, DNB Tyrvinglekene17.06.12
-----380--------------------
-----390--------------------
-----400--------------------
-----410--------------------
-----420--------------------
-----430--------------------
-----440--------------------
-----450--------------------
-----460--------------------
-----470--------------------
-----480--------------------
-----490--------------------
-----500--------------------
-----510--------------------
-----520--------------------
-----530--------------------
-----540--------------------
-----550--------------------
-----560--------------------
Utenlandske statsborgere for norske klubber
ResultatNavn, KlubbF.DatoPlasseringStedR.Dato

Ikke godkjente resultater
For mye vind
ResultatNavn, KlubbF.DatoPlasseringStedR.Dato

Manglende informasjon om vind
ResultatNavn, KlubbF.DatoPlasseringStedR.Dato

Kule 7,26Kg

ResultatNavn, KlubbF.DatoPlasseringStedR.Dato
-----10--------------------
-----20--------------------
-----30--------------------
-----40--------------------
-----50--------------------
-----60--------------------
-----70--------------------
-----80--------------------
-----90--------------------
-----100--------------------
15,30Vidar Rasmussen, Asker Sk. Friidrett25.03.671Asker10.09.00
15,29Espen Sagen, Asker Sk. Friidrett28.05.721Skien07.08.93
-----110--------------------
-----120--------------------
-----130--------------------
-----140--------------------
-----150--------------------
-----160--------------------
-----170--------------------
-----180--------------------
-----190--------------------
-----200--------------------
-----210--------------------
-----220--------------------
-----230--------------------
-----240--------------------
14,32Marius Sagen, Asker Sk. Friidrett18.02.731Geithus06.07.96
-----250--------------------
-----260--------------------
-----270--------------------
-----280--------------------
-----290--------------------
-----300--------------------
-----310--------------------
-----320--------------------
-----330--------------------
-----340--------------------
-----350--------------------
13,82Thor Olav Rosvold, Asker Sk. Friidrett02.07.965Haugesund, NM 201501.08.15
-----360--------------------
-----370--------------------
-----380--------------------
-----390--------------------
-----400--------------------
-----410--------------------
-----420--------------------
-----430--------------------
-----440--------------------
-----450--------------------
-----460--------------------
-----470--------------------
-----480--------------------
10,49Espen Jahren, Asker Sk. Friidrett25.04.661 (MV45)Heggedal, Kastkarusell 128.05.15
-----490--------------------
-----500--------------------
-----510--------------------
-----520--------------------
-----530--------------------
-----540--------------------
-----550--------------------
-----560--------------------
-----570--------------------
-----580--------------------
-----590--------------------
-----600--------------------
-----610--------------------
-----620--------------------
-----630--------------------
-----640--------------------
-----650--------------------
-----660--------------------
-----670--------------------
-----680--------------------
-----690--------------------
-----700--------------------
-----710--------------------
-----720--------------------
-----730--------------------
-----740--------------------
-----750--------------------
-----760--------------------
-----770--------------------
-----780--------------------
-----790--------------------
-----800--------------------
-----810--------------------
-----820--------------------
-----830--------------------
-----840--------------------
-----850--------------------
-----860--------------------
-----870--------------------
-----880--------------------
-----890--------------------
-----900--------------------
-----910--------------------
-----920--------------------
-----930--------------------
-----940--------------------
-----950--------------------
-----960--------------------
-----970--------------------
-----980--------------------
-----990--------------------
-----1000--------------------
-----1010--------------------
-----1020--------------------
Utenlandske statsborgere for norske klubber
ResultatNavn, KlubbF.DatoPlasseringStedR.Dato

Ikke godkjente resultater
Ikke medlem av NFIF
ResultatNavn, KlubbF.DatoPlasseringStedR.Dato

ResultatNavn, KlubbF.DatoPlasseringStedR.Dato

ResultatNavn, KlubbF.DatoPlasseringStedR.Dato

ResultatNavn, KlubbF.DatoPlasseringStedR.Dato

ResultatNavn, KlubbF.DatoPlasseringStedR.Dato

ResultatNavn, KlubbF.DatoPlasseringStedR.Dato

ResultatNavn, KlubbF.DatoPlasseringStedR.Dato

ResultatNavn, KlubbF.DatoPlasseringStedR.Dato

Diskos 2,0Kg

ResultatNavn, KlubbF.DatoPlasseringStedR.Dato
-----10--------------------
-----20--------------------
-----30--------------------
-----40--------------------
-----50--------------------
-----60--------------------
-----70--------------------
-----80--------------------
-----90--------------------
49,28Marius Sagen, Asker Sk. Friidrett18.02.731Jessheim04.06.98
-----100--------------------
48,66Erik Johannes Rosvold, Asker Sk. Friidrett13.11.981Jessheim, Norgeslekene11.08.18
-----110--------------------
-----120--------------------
-----130--------------------
-----140--------------------
-----150--------------------
-----160--------------------
-----170--------------------
-----180--------------------
-----190--------------------
-----200--------------------
-----210--------------------
-----220--------------------
-----230--------------------
-----240--------------------
-----250--------------------
-----260--------------------
-----270--------------------
-----280--------------------
-----290--------------------
-----300--------------------
-----310--------------------
-----320--------------------
-----330--------------------
-----340--------------------
-----350--------------------
42,54Tommy Lillehagen, Asker Sk. Friidrett02.03.871Bath, GBR26.04.08
-----360--------------------
-----370--------------------
-----380--------------------
-----390--------------------
-----400--------------------
-----410--------------------
-----420--------------------
-----430--------------------
35,40Espen Jahren, Asker Sk. Friidrett25.04.661Halden, Treningsstevne09.08.18
-----440--------------------
-----450--------------------
-----460--------------------
-----470--------------------
-----480--------------------
-----490--------------------
-----500--------------------
-----510--------------------
-----520--------------------
-----530--------------------
-----540--------------------
-----550--------------------
-----560--------------------
-----570--------------------
-----580--------------------
-----590--------------------
-----600--------------------
25,30Magnus Kvale Thom, Asker Sk. Friidrett21.03.973Asker, Utvidet Lagseriestevne26.08.13
-----610--------------------
-----620--------------------
-----630--------------------
-----640--------------------
-----650--------------------
-----660--------------------
-----670--------------------
-----680--------------------
-----690--------------------
-----700--------------------
-----710--------------------
-----720--------------------
-----730--------------------
-----740--------------------
-----750--------------------
-----760--------------------
-----770--------------------
-----780--------------------
-----790--------------------
-----800--------------------
-----810--------------------
-----820--------------------
-----830--------------------
-----840--------------------
Utenlandske statsborgere for norske klubber
ResultatNavn, KlubbF.DatoPlasseringStedR.Dato

Ikke godkjente resultater
Ikke medlem av NFIF
ResultatNavn, KlubbF.DatoPlasseringStedR.Dato

ResultatNavn, KlubbF.DatoPlasseringStedR.Dato

ResultatNavn, KlubbF.DatoPlasseringStedR.Dato

ResultatNavn, KlubbF.DatoPlasseringStedR.Dato

ResultatNavn, KlubbF.DatoPlasseringStedR.Dato

ResultatNavn, KlubbF.DatoPlasseringStedR.Dato

ResultatNavn, KlubbF.DatoPlasseringStedR.Dato

Slegge 7,26Kg

ResultatNavn, KlubbF.DatoPlasseringStedR.Dato
-----10--------------------
-----20--------------------
-----30--------------------
-----40--------------------
-----50--------------------
-----60--------------------
-----70--------------------
-----80--------------------
-----90--------------------
-----100--------------------
-----110--------------------
29,35Espen Jahren, Asker Sk. Friidrett25.04.661 (MV45)Heggedal, Kastkarusell 310.09.15
-----120--------------------
-----130--------------------
-----140--------------------
-----150--------------------
-----160--------------------
-----170--------------------
-----180--------------------
-----190--------------------
-----200--------------------
-----210--------------------
-----220--------------------
-----230--------------------
-----240--------------------
-----250--------------------
-----260--------------------
-----270--------------------
-----280--------------------
Utenlandske statsborgere for norske klubber
ResultatNavn, KlubbF.DatoPlasseringStedR.Dato

Ikke godkjente resultater
Ikke approbert øvelse
ResultatNavn, KlubbF.DatoPlasseringStedR.Dato

Ikke medlem av NFIF
ResultatNavn, KlubbF.DatoPlasseringStedR.Dato

Spyd 800gram

ResultatNavn, KlubbF.DatoPlasseringStedR.Dato
-----10--------------------
-----20--------------------
-----30--------------------
-----40--------------------
-----50--------------------
-----60--------------------
-----70--------------------
-----80--------------------
-----90--------------------
-----100--------------------
-----110--------------------
-----120--------------------
-----130--------------------
-----140--------------------
-----150--------------------
-----160--------------------
-----170--------------------
-----180--------------------
-----190--------------------
-----200--------------------
42,43Espen Jahren, Asker Sk. Friidrett25.04.661Asker, Kast-mangekamp25.09.11
-----210--------------------
-----220--------------------
-----230--------------------
-----240--------------------
-----250--------------------
-----260--------------------
-----270--------------------
-----280--------------------
-----290--------------------
-----300--------------------
-----310--------------------
-----320--------------------
-----330--------------------
-----340--------------------
-----350--------------------
-----360--------------------
-----370--------------------
-----380--------------------
-----390--------------------
-----400--------------------
-----410--------------------
-----420--------------------
-----430--------------------
-----440--------------------
31,78Magnus Kvale Thom, Asker Sk. Friidrett21.03.973 (G-18/19)Asker, Askerlekene 201506.06.15
31,73Erik Johannes Rosvold, Asker Sk. Friidrett13.11.98P (G-18/19)Asker, Kast 5-kampen25.09.16
-----450--------------------
-----460--------------------
-----470--------------------
-----480--------------------
30,24Tobias Dale, Asker Sk. Friidrett04.01.974 (G-18/19)Asker, Askerlekene 201506.06.15
-----490--------------------
-----500--------------------
-----510--------------------
-----520--------------------
-----530--------------------
-----540--------------------
-----550--------------------
27,70Espen Berntzen Høgstedt, Asker Sk. Friidrett03.04.975 (G-18/19)Asker, Askerlekene 201506.06.15
-----560--------------------
-----570--------------------
-----580--------------------
-----590--------------------
-----600--------------------
-----610--------------------
-----620--------------------
-----630--------------------
-----640--------------------
-----650--------------------
-----660--------------------
-----670--------------------
-----680--------------------
-----690--------------------
-----700--------------------
-----710--------------------
-----720--------------------
Utenlandske statsborgere for norske klubber
ResultatNavn, KlubbF.DatoPlasseringStedR.Dato

Ikke godkjente resultater
Ikke medlem av NFIF
ResultatNavn, KlubbF.DatoPlasseringStedR.Dato

VektKast 15,88Kg

ResultatNavn, KlubbF.DatoPlasseringStedR.Dato
-----10--------------------
-----20--------------------
12,59Thor Olav Rosvold, Asker Sk. Friidrett02.07.96M (G-18/19)Asker, Kast-mangekamp28.09.14
-----30--------------------
-----40--------------------
10,00Erik Johannes Rosvold, Asker Sk. Friidrett13.11.98M (G-16)Asker, Kast-mangekamp28.09.14
9,79Espen Jahren, Asker Sk. Friidrett25.04.66MAsker, Kast-mangekamp28.09.14
-----50--------------------
-----60--------------------
-----70--------------------
-----80--------------------
-----90--------------------
6,78Magnus Kvale Thom, Asker Sk. Friidrett21.03.97M (G-17)Asker, Kast-mangekamp28.09.14
-----100--------------------
5,34Espen Berntzen Høgstedt, Asker Sk. Friidrett03.04.97M (G-17)Asker, Kast-mangekamp28.09.14
Utenlandske statsborgere for norske klubber
ResultatNavn, KlubbF.DatoPlasseringStedR.Dato

10 Kamp (100m-Lengde-Kule-Høyde-400m-110mhekk-Diskos-Stav-Spyd-1500m)

ResultatNavn, KlubbF.DatoPlasseringStedR.Dato
-----10--------------------

Kast 5 Kamp (Slegge-Kule-Diskos-Spyd-Vektkast)

ResultatNavn, KlubbF.DatoPlasseringStedR.Dato
-----10--------------------
3367Thor Olav Rosvold, Asker Sk. Friidrett
02.07.961 (G-15)Asker, Kast-mangekamp25.09.11
-----20--------------------
-----30--------------------
-----40--------------------
2204Espen Jahren, Asker Sk. Friidrett
25.04.661Asker, Kast-mangekamp25.09.11
-----50--------------------
-----60--------------------
-----70--------------------
Utenlandske statsborgere for norske klubber
ResultatNavn, KlubbF.DatoPlasseringStedR.Dato

Total requesttime: 113.97785401344 seconds